  0
SECTION
  2
HEADER
  9
$ACADVER
  1
AC1015
  9
$ACADMAINTVER
 70
     6
  9
$DWGCODEPAGE
  3
ANSI_1252
  9
$INSBASE
 10
0.0
 20
0.0
 30
0.0
  9
$EXTMIN
 10
-0.5
 20
-0.5
 30
-0.5
  9
$EXTMAX
 10
5.0
 20
5.0
 30
5.0
  9
$LIMMIN
 10
-0.5
 20
-0.5
  9
$LIMMAX
 10
5.0
 20
5.0
  9
$ORTHOMODE
 70
     0
  9
$REGENMODE
 70
     1
  9
$FILLMODE
 70
     1
  9
$QTEXTMODE
 70
     0
  9
$MIRRTEXT
 70
     1
  9
$LTSCALE
 40
1.0
  9
$ATTMODE
 70
     1
  9
$TEXTSIZE
 40
0.2
  9
$TRACEWID
 40
0.05
  9
$TEXTSTYLE
  7
Standard
  9
$CLAYER
  8
0
  9
$CELTYPE
  6
Continuous
  9
$CECOLOR
 62
   256
  9
$CELTSCALE
 40
1.0
  9
$DISPSILH
 70
     0
  9
$DIMSCALE
 40
1.0
  9
$DIMASZ
 40
0.18
  9
$DIMEXO
 40
0.0625
  9
$DIMDLI
 40
0.38
  9
$DIMRND
 40
0.0
  9
$DIMDLE
 40
0.0
  9
$DIMEXE
 40
0.18
  9
$DIMTP
 40
0.0
  9
$DIMTM
 40
0.0
  9
$DIMTXT
 40
0.18
  9
$DIMCEN
 40
0.09
  9
$DIMTSZ
 40
0.0
  9
$DIMTOL
 70
     0
  9
$DIMLIM
 70
     0
  9
$DIMTIH
 70
     1
  9
$DIMTOH
 70
     1
  9
$DIMSE1
 70
     0
  9
$DIMSE2
 70
     0
  9
$DIMTAD
 70
     0
  9
$DIMZIN
 70
     0
  9
$DIMBLK
  1

  9
$DIMASO
 70
     1
  9
$DIMSHO
 70
     1
  9
$DIMPOST
  1

  9
$DIMAPOST
  1

  9
$DIMALT
 70
     0
  9
$DIMALTD
 70
     2
  9
$DIMALTF
 40
25.4
  9
$DIMLFAC
 40
1.0
  9
$DIMTOFL
 70
     0
  9
$DIMTVP
 40
0.0
  9
$DIMTIX
 70
     0
  9
$DIMSOXD
 70
     0
  9
$DIMSAH
 70
     0
  9
$DIMBLK1
  1

  9
$DIMBLK2
  1

  9
$DIMSTYLE
  2
Standard
  9
$DIMCLRD
 70
     0
  9
$DIMCLRE
 70
     0
  9
$DIMCLRT
 70
     0
  9
$DIMTFAC
 40
1.0
  9
$DIMGAP
 40
0.09
  9
$DIMJUST
 70
     0
  9
$DIMSD1
 70
     0
  9
$DIMSD2
 70
     0
  9
$DIMTOLJ
 70
     1
  9
$DIMTZIN
 70
     0
  9
$DIMALTZ
 70
     0
  9
$DIMALTTZ
 70
     0
  9
$DIMUPT
 70
     0
  9
$DIMDEC
 70
     4
  9
$DIMTDEC
 70
     4
  9
$DIMALTU
 70
     2
  9
$DIMALTTD
 70
     2
  9
$DIMTXSTY
  7
Standard
  9
$DIMAUNIT
 70
     0
  9
$DIMADEC
 70
     0
  9
$DIMALTRND
 40
0.0
  9
$DIMAZIN
 70
     0
  9
$DIMDSEP
 70
     0
  9
$DIMATFIT
 70
     3
  9
$DIMFRAC
 70
     0
  9
$DIMLDRBLK
  1

  9
$DIMLUNIT
 70
     2
  9
$DIMLWD
 70
     0
  9
$DIMLWE
 70
     0
  9
$DIMTMOVE
 70
     0
  9
$LUNITS
 70
     2
  9
$LUPREC
 70
     4
  9
$SKETCHINC
 40
0.1
  9
$FILLETRAD
 40
0.0
  9
$AUNITS
 70
     0
  9
$AUPREC
 70
     0
  9
$MENU
  1
acad
  9
$ELEVATION
 40
0.0
  9
$PELEVATION
 40
0.0
  9
$THICKNESS
 40
0.0
  9
$LIMCHECK
 70
     0
  9
$CHAMFERA
 40
0.0
  9
$CHAMFERB
 40
0.0
  9
$CHAMFERC
 40
0.0
  9
$CHAMFERD
 40
0.0
  9
$SKPOLY
 70
     0
  9
$TDCREATE
 40
0.000000000
  9
$TDUCREATE
 40
0.000000000
  9
$TDUPDATE
 40
0.000000000
  9
$TDUUPDATE
 40
0.000000000
  9
$TDINDWG
 40
0.0000000000
  9
$TDUSRTIMER
 40
0.0000000000
  9
$USRTIMER
 70
     1
  9
$ANGBASE
 50
0.0
  9
$ANGDIR
 70
     0
  9
$PDMODE
 70
     0
  9
$PDSIZE
 40
0.0
  9
$PLINEWID
 40
0.0
  9
$SPLFRAME
 70
     0
  9
$SPLINETYPE
 70
     6
  9
$SPLINESEGS
 70
     8
  9
$HANDSEED
  5
2A7
  9
$SURFTAB1
 70
     6
  9
$SURFTAB2
 70
     6
  9
$SURFTYPE
 70
     6
  9
$SURFU
 70
     6
  9
$SURFV
 70
     6
  9
$UCSBASE
  2

  9
$UCSNAME
  2

  9
$UCSORG
 10
0.0
 20
0.0
 30
0.0
  9
$UCSXDIR
 10
1.0
 20
0.0
 30
0.0
  9
$UCSYDIR
 10
0.0
 20
1.0
 30
0.0
  9
$UCSORTHOREF
  2

  9
$UCSORTHOVIEW
 70
     0
  9
$UCSORGTOP
 10
0.0
 20
0.0
 30
0.0
  9
$UCSORGBOTTOM
 10
0.0
 20
0.0
 30
0.0
  9
$UCSORGLEFT
 10
0.0
 20
0.0
 30
0.0
  9
$UCSORGRIGHT
 10
0.0
 20
0.0
 30
0.0
  9
$UCSORGFRONT
 10
0.0
 20
0.0
 30
0.0
  9
$UCSORGBACK
 10
0.0
 20
0.0
 30
0.0
  9
$PUCSBASE
  2

  9
$PUCSNAME
  2

  9
$PUCSORG
 10
0.0
 20
0.0
 30
0.0
  9
$PUCSXDIR
 10
1.0
 20
0.0
 30
0.0
  9
$PUCSYDIR
 10
0.0
 20
1.0
 30
0.0
  9
$PUCSORTHOREF
  2

  9
$PUCSORTHOVIEW
 70
     0
  9
$PUCSORGTOP
 10
0.0
 20
0.0
 30
0.0
  9
$PUCSORGBOTTOM
 10
0.0
 20
0.0
 30
0.0
  9
$PUCSORGLEFT
 10
0.0
 20
0.0
 30
0.0
  9
$PUCSORGRIGHT
 10
0.0
 20
0.0
 30
0.0
  9
$PUCSORGFRONT
 10
0.0
 20
0.0
 30
0.0
  9
$PUCSORGBACK
 10
0.0
 20
0.0
 30
0.0
  9
$USERI1
 70
     0
  9
$USERI2
 70
     0
  9
$USERI3
 70
     0
  9
$USERI4
 70
     0
  9
$USERI5
 70
     0
  9
$USERR1
 40
0.0
  9
$USERR2
 40
0.0
  9
$USERR3
 40
0.0
  9
$USERR4
 40
0.0
  9
$USERR5
 40
0.0
  9
$WORLDVIEW
 70
     1
  9
$SHADEDGE
 70
     3
  9
$SHADEDIF
 70
    70
  9
$TILEMODE
 70
     0
  9
$MAXACTVP
 70
    16
  9
$PINSBASE
 10
0.0
 20
0.0
 30
0.0
  9
$PLIMCHECK
 70
     0
  9
$PEXTMIN
 10
-0.5
 20
-0.5
 30
-0.5
  9
$PEXTMAX
 10
5.0
 20
5.0
 30
5.0
  9
$PLIMMIN
 10
-0.5
 20
-0.5
  9
$PLIMMAX
 10
5.0
 20
5.0
  9
$UNITMODE
 70
     0
  9
$VISRETAIN
 70
     0
  9
$PLINEGEN
 70
     1
  9
$PSLTSCALE
 70
     0
  9
$TREEDEPTH
 70
  3020
  9
$CMLSTYLE
  2
Standard
  9
$CMLJUST
 70
     0
  9
$CMLSCALE
 40
1.0
  9
$PROXYGRAPHICS
 70
     0
  9
$MEASUREMENT
 70
     0
  9
$CELWEIGHT
370
     0
  9
$ENDCAPS
280
     0
  9
$JOINSTYLE
280
     0
  9
$LWDISPLAY
290
     0
  9
$INSUNITS
 70
     0
  9
$HYPERLINKBASE
  1

  9
$STYLESHEET
  1

  9
$XEDIT
290
     1
  9
$CEPSNTYPE
380
     0
  9
$PSTYLEMODE
290
     1
  9
$FINGERPRINTGUID
  2

  9
$VERSIONGUID
  2

  9
$EXTNAMES
290
     1
  9
$PSVPSCALE
 40
0.0
  0
ENDSEC
  0
SECTION
  2
CLASSES
  0
CLASS
  1
LWPOLYLINE
  2
AcDbPolyline
  3
AutoCAD 2000
 90
        0
280
     0
281
     1
  0
CLASS
  1
IMAGE
  2
AcDbRasterImage
  3
ISM
 90
      127
280
     0
281
     1
  0
CLASS
  1
OLE2FRAME
  2
AcDbOle2Frame
  3
AutoCAD 2000
 90
        0
280
     0
281
     1
  0
CLASS
  1
HATCH
  2
AcDbHatch
  3
AutoCAD 2000
 90
        0
280
     0
281
     1
  0
CLASS
  1
DICTIONARYVAR
  2
AcDbDictionaryVar
  3
AutoCAD 2000
 90
        0
280
     0
281
     0
  0
CLASS
  1
RASTERVARIABLES
  2
AcDbRasterVariables
  3
ISM
 90
        0
280
     0
281
     0
  0
CLASS
  1
IMAGEDEF
  2
AcDbRasterImageDef
  3
ISM
 90
        0
280
     0
281
     0
  0
CLASS
  1
IMAGEDEF_REACTOR
  2
AcDbRasterImageDefReactor
  3
ISM
 90
        1
280
     0
281
     0
  0
CLASS
  1
IDBUFFER
  2
AcDbIdBuffer
  3
AutoCAD 2000
 90
        0
280
     0
281
     0
  0
CLASS
  1
SPATIAL_FILTER
  2
AcDbSpatialFilter
  3
AutoCAD 2000
 90
        0
280
     0
281
     0
  0
CLASS
  1
XRECORD
  2
AcDbXrecord
  3
AutoCAD 2000
 90
        0
280
     0
281
     0
  0
CLASS
  1
SORTENTSTABLE
  2
AcDbSortentsTable
  3
AutoCAD 2000
 90
        0
280
     0
281
     0
  0
CLASS
  1
LAYER_INDEX
  2
AcDbLayerIndex
  3
AutoCAD 2000
 90
        0
280
     0
281
     0
  0
CLASS
  1
SPATIAL_INDEX
  2
AcDbSpatialIndex
  3
AutoCAD 2000
 90
        0
280
     0
281
     0
  0
CLASS
  1
OBJECT_PTR
  2
CAseDLPNTableRecord
  3
"ASE-LPNTableRecord"
 90
        1
280
     0
281
     0
  0
CLASS
  1
LAYOUT
  2
AcDbLayout
  3
AutoCAD 2000
 90
        0
280
     0
281
     0
  0
CLASS
  1
PLOTSETTINGS
  2
AcDbPlotSettings
  3
AutoCAD 2000
 90
        0
280
     0
281
     0
  0
CLASS
  1
ACDBDICTIONARYWDFLT
  2
AcDbDictionaryWithDefault
  3
AutoCAD 2000
 90
        0
280
     0
281
     0
  0
CLASS
  1
ACDBPLACEHOLDER
  2
AcDbPlaceHolder
  3
AutoCAD 2000
 90
        0
280
     0
281
     0
  0
CLASS
  1
VBA_PROJECT
  2
AcDbVbaProject
  3
acadvba
 90
        0
280
     0
281
     0
  0
CLASS
  1
WIPEOUT
  2
AcDbWipeout
  3
WipeOut|AutoCAD Express Tool|expresstools@autodesk.com
 90
      127
280
     0
281
     1
  0
CLASS
  1
WIPEOUTVARIABLES
  2
AcDbWipeoutVariables
  3
WipeOut|AutoCAD Express Tool|expresstools@autodesk.com
 90
        0
280
     0
281
     0
  0
CLASS
  1
RTEXT
  2
RText
  3
RText|AutoCAD Express Tool|expresstools@autodesk.com
 90
        0
280
     0
281
     1
  0
CLASS
  1
ARCALIGNEDTEXT
  2
AcDbArcAlignedText
  3
ATEXT|AutoCAD Express Tool|expresstools@autodesk.com
 90
        0
280
     0
281
     1
  0
ENDSEC
  0
SECTION
  2
TABLES
  0
TABLE
  2
VPORT
  5
7
100
AcDbSymbolTable
 70
    16
  0
VPORT
  5
297
100
AcDbSymbolTableRecord
100
AcDbViewportTableRecord
  2
*ACTIVE
 70
     0
 10
0.0
 20
0.0
 11
1.0
 21
1.0
 12
0.0
 22
0.0
 13
0.0
 23
0.0
 14
1.0
 24
1.0
 15
0.0
 25
0.0
 16
0.718873
 26
-0.585049
 36
0.375419
 17
0.0
 27
0.0
 37
0.0
 40
56.702455
 41
0.688564
 42
50.0
 43
28.084088
 44
-28.084088
 50
0.0
 51
0.0
 71
    16
 72
   100
 73
     1
 74
     1
 75
     0
 76
     0
 77
     0
 78
     0
281
     0
 65
     0
110
0.0
120
0.0
130
0.0
111
1.0
121
0.0
131
0.0
112
0.0
122
1.0
132
0.0
345
0
346
0
 79
     0
146
0.0
  0
VPORT
  5
298
100
AcDbSymbolTableRecord
100
AcDbViewportTableRecord
  2
L1
 70
     0
 10
0.0
 20
0.0
 11
1.0
 21
1.0
 12
0.0
 22
0.0
 13
0.0
 23
0.0
 14
1.0
 24
1.0
 15
0.0
 25
0.0
 16
0.718873
 26
-0.585049
 36
0.375419
 17
0.0
 27
0.0
 37
0.0
 40
56.702455
 41
0.688564
 42
50.0
 43
28.084088
 44
-28.084088
 50
0.0
 51
0.0
 71
    16
 72
   100
 73
     1
 74
     1
 75
     0
 76
     0
 77
     0
 78
     0
281
     0
 65
     0
110
0.0
120
0.0
130
0.0
111
1.0
121
0.0
131
0.0
112
0.0
122
1.0
132
0.0
345
0
346
0
 79
     0
146
0.0
  0
VPORT
  5
299
100
AcDbSymbolTableRecord
100
AcDbViewportTableRecord
  2
L2
 70
     0
 10
0.0
 20
0.0
 11
0.5
 21
1.0
 12
0.0
 22
0.0
 13
0.0
 23
0.0
 14
1.0
 24
1.0
 15
0.0
 25
0.0
 16
0.0
 26
-1.0
 36
0.0
 17
0.0
 27
0.0
 37
0.0
 40
54.79822
 41
0.688564
 42
50.0
 43
28.138303
 44
-28.138303
 50
0.0
 51
0.0
 71
    16
 72
   100
 73
     1
 74
     1
 75
     0
 76
     0
 77
     0
 78
     0
281
     0
 65
     0
110
0.0
120
0.0
130
0.0
111
1.0
121
0.0
131
0.0
112
0.0
122
1.0
132
0.0
345
0
346
0
 79
     0
146
0.0
  0
VPORT
  5
29A
100
AcDbSymbolTableRecord
100
AcDbViewportTableRecord
  2
L2
 70
     0
 10
0.5
 20
0.0
 11
1.0
 21
1.0
 12
0.0
 22
0.0
 13
0.0
 23
0.0
 14
1.0
 24
1.0
 15
0.0
 25
0.0
 16
1.0
 26
0.0
 36
0.0
 17
0.0
 27
0.0
 37
0.0
 40
54.79822
 41
0.688564
 42
50.0
 43
27.782926
 44
-27.782926
 50
0.0
 51
0.0
 71
    16
 72
   100
 73
     1
 74
     1
 75
     0
 76
     0
 77
     0
 78
     0
281
     0
 65
     0
110
0.0
120
0.0
130
0.0
111
1.0
121
0.0
131
0.0
112
0.0
122
1.0
132
0.0
345
0
346
0
 79
     0
146
0.0
  0
VPORT
  5
29B
100
AcDbSymbolTableRecord
100
AcDbViewportTableRecord
  2
L3
 70
     0
 10
0.0
 20
0.5
 11
1.0
 21
1.0
 12
0.0
 22
0.0
 13
0.0
 23
0.0
 14
1.0
 24
1.0
 15
0.0
 25
0.0
 16
0.0
 26
0.0
 36
1.0
 17
0.0
 27
0.0
 37
0.0
 40
9.204294
 41
0.688564
 42
50.0
 43
27.39911
 44
-27.39911
 50
0.0
 51
0.0
 71
    16
 72
   100
 73
     1
 74
     1
 75
     0
 76
     0
 77
     0
 78
     0
281
     0
 65
     0
110
0.0
120
0.0
130
0.0
111
1.0
121
0.0
131
0.0
112
0.0
122
1.0
132
0.0
345
0
346
0
 79
     0
146
0.0
  0
VPORT
  5
29C
100
AcDbSymbolTableRecord
100
AcDbViewportTableRecord
  2
L3
 70
     0
 10
0.0
 20
0.0
 11
1.0
 21
0.5
 12
0.0
 22
0.0
 13
0.0
 23
0.0
 14
1.0
 24
1.0
 15
0.0
 25
0.0
 16
0.0
 26
-1.0
 36
0.0
 17
0.0
 27
0.0
 37
0.0
 40
54.79822
 41
0.688564
 42
50.0
 43
28.138303
 44
-28.138303
 50
0.0
 51
0.0
 71
    16
 72
   100
 73
     1
 74
     1
 75
     0
 76
     0
 77
     0
 78
     0
281
     0
 65
     0
110
0.0
120
0.0
130
0.0
111
1.0
121
0.0
131
0.0
112
0.0
122
1.0
132
0.0
345
0
346
0
 79
     0
146
0.0
  0
VPORT
  5
29D
100
AcDbSymbolTableRecord
100
AcDbViewportTableRecord
  2
L4
 70
     0
 10
0.0
 20
0.5
 11
0.5
 21
1.0
 12
0.0
 22
0.0
 13
0.0
 23
0.0
 14
1.0
 24
1.0
 15
0.0
 25
0.0
 16
0.0
 26
0.0
 36
1.0
 17
0.0
 27
0.0
 37
0.0
 40
9.204294
 41
0.688564
 42
50.0
 43
27.39911
 44
-27.39911
 50
0.0
 51
0.0
 71
    16
 72
   100
 73
     1
 74
     1
 75
     0
 76
     0
 77
     0
 78
     0
281
     0
 65
     0
110
0.0
120
0.0
130
0.0
111
1.0
121
0.0
131
0.0
112
0.0
122
1.0
132
0.0
345
0
346
0
 79
     0
146
0.0
  0
VPORT
  5
29E
100
AcDbSymbolTableRecord
100
AcDbViewportTableRecord
  2
L4
 70
     0
 10
0.0
 20
0.0
 11
0.5
 21
0.5
 12
0.0
 22
0.0
 13
0.0
 23
0.0
 14
1.0
 24
1.0
 15
0.0
 25
0.0
 16
0.0
 26
-1.0
 36
0.0
 17
0.0
 27
0.0
 37
0.0
 40
54.79822
 41
0.688564
 42
50.0
 43
28.138303
 44
-28.138303
 50
0.0
 51
0.0
 71
    16
 72
   100
 73
     1
 74
     1
 75
     0
 76
     0
 77
     0
 78
     0
281
     0
 65
     0
110
0.0
120
0.0
130
0.0
111
1.0
121
0.0
131
0.0
112
0.0
122
1.0
132
0.0
345
0
346
0
 79
     0
146
0.0
  0
VPORT
  5
29F
100
AcDbSymbolTableRecord
100
AcDbViewportTableRecord
  2
L4
 70
     0
 10
0.5
 20
0.0
 11
1.0
 21
0.5
 12
0.0
 22
0.0
 13
0.0
 23
0.0
 14
1.0
 24
1.0
 15
0.0
 25
0.0
 16
1.0
 26
0.0
 36
0.0
 17
0.0
 27
0.0
 37
0.0
 40
54.79822
 41
0.688564
 42
50.0
 43
27.782926
 44
-27.782926
 50
0.0
 51
0.0
 71
    16
 72
   100
 73
     1
 74
     1
 75
     0
 76
     0
 77
     0
 78
     0
281
     0
 65
     0
110
0.0
120
0.0
130
0.0
111
1.0
121
0.0
131
0.0
112
0.0
122
1.0
132
0.0
345
0
346
0
 79
     0
146
0.0
  0
VPORT
  5
2A0
100
AcDbSymbolTableRecord
100
AcDbViewportTableRecord
  2
L4
 70
     0
 10
0.5
 20
0.5
 11
1.0
 21
1.0
 12
0.0
 22
0.0
 13
0.0
 23
0.0
 14
1.0
 24
1.0
 15
0.0
 25
0.0
 16
0.57735
 26
-0.57735
 36
0.57735
 17
0.0
 27
0.0
 37
0.0
 40
53.731694
 41
0.688564
 42
50.0
 43
27.971005
 44
-27.971005
 50
0.0
 51
0.0
 71
    16
 72
   100
 73
     1
 74
     1
 75
     0
 76
     0
 77
     0
 78
     0
281
     0
 65
     0
110
0.0
120
0.0
130
0.0
111
1.0
121
0.0
131
0.0
112
0.0
122
1.0
132
0.0
345
0
346
0
 79
     0
146
0.0
  0
VPORT
  5
2A1
100
AcDbSymbolTableRecord
100
AcDbViewportTableRecord
  2
L6
 70
     0
 10
0.0
 20
0.5
 11
0.333333
 21
1.0
 12
0.0
 22
0.0
 13
0.0
 23
0.0
 14
1.0
 24
1.0
 15
0.0
 25
0.0
 16
0.718873
 26
-0.585049
 36
0.375419
 17
0.0
 27
0.0
 37
0.0
 40
56.702455
 41
0.688564
 42
50.0
 43
28.084088
 44
-28.084088
 50
0.0
 51
0.0
 71
    16
 72
   100
 73
     1
 74
     1
 75
     0
 76
     0
 77
     0
 78
     0
281
     0
 65
     0
110
0.0
120
0.0
130
0.0
111
1.0
121
0.0
131
0.0
112
0.0
122
1.0
132
0.0
345
0
346
0
 79
     0
146
0.0
  0
VPORT
  5
2A2
100
AcDbSymbolTableRecord
100
AcDbViewportTableRecord
  2
L6
 70
     0
 10
0.0
 20
0.0
 11
0.333333
 21
0.5
 12
0.0
 22
0.0
 13
0.0
 23
0.0
 14
1.0
 24
1.0
 15
0.0
 25
0.0
 16
-1.0
 26
0.0
 36
0.0
 17
0.0
 27
0.0
 37
0.0
 40
54.79822
 41
0.688564
 42
50.0
 43
27.782926
 44
-27.782926
 50
0.0
 51
0.0
 71
    16
 72
   100
 73
     1
 74
     1
 75
     0
 76
     0
 77
     0
 78
     0
281
     0
 65
     0
110
0.0
120
0.0
130
0.0
111
1.0
121
0.0
131
0.0
112
0.0
122
1.0
132
0.0
345
0
346
0
 79
     0
146
0.0
  0
VPORT
  5
2A3
100
AcDbSymbolTableRecord
100
AcDbViewportTableRecord
  2
L6
 70
     0
 10
0.333333
 20
0.5
 11
0.666667
 21
1.0
 12
0.0
 22
0.0
 13
0.0
 23
0.0
 14
1.0
 24
1.0
 15
0.0
 25
0.0
 16
0.0
 26
0.0
 36
1.0
 17
0.0
 27
0.0
 37
0.0
 40
9.204294
 41
0.688564
 42
50.0
 43
27.39911
 44
-27.39911
 50
0.0
 51
0.0
 71
    16
 72
   100
 73
     1
 74
     1
 75
     0
 76
     0
 77
     0
 78
     0
281
     0
 65
     0
110
0.0
120
0.0
130
0.0
111
1.0
121
0.0
131
0.0
112
0.0
122
1.0
132
0.0
345
0
346
0
 79
     0
146
0.0
  0
VPORT
  5
2A4
100
AcDbSymbolTableRecord
100
AcDbViewportTableRecord
  2
L6
 70
     0
 10
0.333333
 20
0.0
 11
0.666667
 21
0.5
 12
0.0
 22
0.0
 13
0.0
 23
0.0
 14
1.0
 24
1.0
 15
0.0
 25
0.0
 16
0.0
 26
-1.0
 36
0.0
 17
0.0
 27
0.0
 37
0.0
 40
54.79822
 41
0.688564
 42
50.0
 43
28.138303
 44
-28.138303
 50
0.0
 51
0.0
 71
    16
 72
   100
 73
     1
 74
     1
 75
     0
 76
     0
 77
     0
 78
     0
281
     0
 65
     0
110
0.0
120
0.0
130
0.0
111
1.0
121
0.0
131
0.0
112
0.0
122
1.0
132
0.0
345
0
346
0
 79
     0
146
0.0
  0
VPORT
  5
2A5
100
AcDbSymbolTableRecord
100
AcDbViewportTableRecord
  2
L6
 70
     0
 10
0.666667
 20
0.5
 11
1.0
 21
1.0
 12
0.0
 22
0.0
 13
0.0
 23
0.0
 14
1.0
 24
1.0
 15
0.0
 25
0.0
 16
0.57735
 26
-0.57735
 36
0.57735
 17
0.0
 27
0.0
 37
0.0
 40
53.731694
 41
0.688564
 42
50.0
 43
27.971005
 44
-27.971005
 50
0.0
 51
0.0
 71
    16
 72
   100
 73
     1
 74
     1
 75
     0
 76
     0
 77
     0
 78
     0
281
     0
 65
     0
110
0.0
120
0.0
130
0.0
111
1.0
121
0.0
131
0.0
112
0.0
122
1.0
132
0.0
345
0
346
0
 79
     0
146
0.0
  0
VPORT
  5
2A6
100
AcDbSymbolTableRecord
100
AcDbViewportTableRecord
  2
L6
 70
     0
 10
0.666667
 20
0.0
 11
1.0
 21
0.5
 12
0.0
 22
0.0
 13
0.0
 23
0.0
 14
1.0
 24
1.0
 15
0.0
 25
0.0
 16
1.0
 26
0.0
 36
0.0
 17
0.0
 27
0.0
 37
0.0
 40
54.79822
 41
0.688564
 42
50.0
 43
27.782926
 44
-27.782926
 50
0.0
 51
0.0
 71
    16
 72
   100
 73
     1
 74
     1
 75
     0
 76
     0
 77
     0
 78
     0
281
     0
 65
     0
110
0.0
120
0.0
130
0.0
111
1.0
121
0.0
131
0.0
112
0.0
122
1.0
132
0.0
345
0
346
0
 79
     0
146
0.0
  0
ENDTAB
  0
TABLE
  2
LTYPE
  5
4
100
AcDbSymbolTable
 70
     9
  0
LTYPE
  5
11
100
AcDbSymbolTableRecord
100
AcDbLinetypeTableRecord
  2
ByBlock
 70
    64
  3

 72
    65
 73
     0
 40
0.0
  0
LTYPE
  5
12
100
AcDbSymbolTableRecord
100
AcDbLinetypeTableRecord
  2
ByLayer
 70
    64
  3

 72
    65
 73
     0
 40
0.0
  0
LTYPE
  5
13
100
AcDbSymbolTableRecord
100
AcDbLinetypeTableRecord
  2
Continuous
 70
    64
  3
Solid line
 72
    65
 73
     0
 40
0.0
  0
LTYPE
  5
24
100
AcDbSymbolTableRecord
100
AcDbLinetypeTableRecord
  2
DASHED
 70
    64
  3
__ __ __ __ __ __ __ __ __
 72
    65
 73
     2
 40
0.75
 49
0.5
 74
     0
 49
-0.25
 74
     0
  0
LTYPE
  5
25
100
AcDbSymbolTableRecord
100
AcDbLinetypeTableRecord
  2
HIDDEN
 70
    64
  3
_ _ _ _ _ _ _ _ _ _ _ _ _ _ _
 72
    65
 73
     2
 40
0.5
 49
0.25
 74
     0
 49
-0.25
 74
     0
  0
LTYPE
  5
26
100
AcDbSymbolTableRecord
100
AcDbLinetypeTableRecord
  2
PHANTOM
 70
    64
  3
____ _ _ ____ _ _ _____ _ _ ____
 72
    65
 73
     6
 40
2.5
 49
1.25
 74
     0
 49
-0.25
 74
     0
 49
0.25
 74
     0
 49
-0.25
 74
     0
 49
0.25
 74
     0
 49
-0.25
 74
     0
  0
LTYPE
  5
27
100
AcDbSymbolTableRecord
100
AcDbLinetypeTableRecord
  2
CENTER
 70
    64
  3
____ _ ____ _ ____ _ ____
 72
    65
 73
     4
 40
2.0
 49
1.25
 74
     0
 49
-0.25
 74
     0
 49
0.25
 74
     0
 49
-0.25
 74
     0
  0
LTYPE
  5
28
100
AcDbSymbolTableRecord
100
AcDbLinetypeTableRecord
  2
DOT
 70
    64
  3
.........................
 72
    65
 73
     2
 40
0.25
 49
0.0
 74
     0
 49
-0.25
 74
     0
  0
LTYPE
  5
29
100
AcDbSymbolTableRecord
100
AcDbLinetypeTableRecord
  2
DASHDOT
 70
    64
  3
_._._._._._._._._._._._._._._._.
 72
    65
 73
     4
 40
1.0
 49
0.5
 74
     0
 49
-0.25
 74
     0
 49
0.0
 74
     0
 49
-0.25
 74
     0
  0
ENDTAB
  0
TABLE
  2
LAYER
  5
2
100
AcDbSymbolTable
 70
     2
  0
LAYER
  5
14
100
AcDbSymbolTableRecord
100
AcDbLayerTableRecord
  2
0
 70
     0
 62
     7
  6
Continuous
290
     1
370
    -3
390
1D
  0
LAYER
  5
2B
100
AcDbSymbolTableRecord
100
AcDbLayerTableRecord
  2
1
 70
     0
 62
     7
  6
Continuous
290
     1
370
    -3
390
1D
  0
ENDTAB
  0
TABLE
  2
STYLE
  5
3
100
AcDbSymbolTable
 70
     1
  0
STYLE
  5
17
100
AcDbSymbolTableRecord
100
AcDbTextStyleTableRecord
  2
Standard
 70
     0
 40
0.0
 41
1.0
 50
0.0
 71
     0
 42
0.0
  3
txt
  4

  0
ENDTAB
  0
TABLE
  2
VIEW
  5
5
100
AcDbSymbolTable
 70
     8
  0
VIEW
  5
28F
100
AcDbSymbolTableRecord
100
AcDbViewTableRecord
  2
TOP
 70
     0
 40
9.204294
 10
0.0
 20
0.0
 41
12.814499
 11
0.0
 21
0.0
 31
1.0
 12
0.0
 22
0.0
 32
0.0
 42
50.0
 43
27.39911
 44
-27.39911
 50
0.0
 71
    16
281
     0
 72
     0
110
0.0
120
0.0
130
0.0
111
1.0
121
0.0
131
0.0
112
0.0
122
1.0
132
0.0
  0
VIEW
  5
290
100
AcDbSymbolTableRecord
100
AcDbViewTableRecord
  2
FRONT
 70
     0
 40
54.79822
 10
0.0
 20
0.0
 41
12.814499
 11
0.0
 21
-1.0
 31
0.0
 12
0.0
 22
0.0
 32
0.0
 42
50.0
 43
28.138303
 44
-28.138303
 50
0.0
 71
    16
281
     0
 72
     0
110
0.0
120
0.0
130
0.0
111
1.0
121
0.0
131
0.0
112
0.0
122
1.0
132
0.0
  0
VIEW
  5
291
100
AcDbSymbolTableRecord
100
AcDbViewTableRecord
  2
RIGHT
 70
     0
 40
54.79822
 10
0.0
 20
0.0
 41
9.204294
 11
1.0
 21
0.0
 31
0.0
 12
0.0
 22
0.0
 32
0.0
 42
50.0
 43
27.782926
 44
-27.782926
 50
0.0
 71
    16
281
     0
 72
     0
110
0.0
120
0.0
130
0.0
111
1.0
121
0.0
131
0.0
112
0.0
122
1.0
132
0.0
  0
VIEW
  5
292
100
AcDbSymbolTableRecord
100
AcDbViewTableRecord
  2
BACK
 70
     0
 40
54.79822
 10
0.0
 20
0.0
 41
12.814499
 11
0.0
 21
1.0
 31
0.0
 12
0.0
 22
0.0
 32
0.0
 42
50.0
 43
28.138303
 44
-28.138303
 50
0.0
 71
    16
281
     0
 72
     0
110
0.0
120
0.0
130
0.0
111
1.0
121
0.0
131
0.0
112
0.0
122
1.0
132
0.0
  0
VIEW
  5
293
100
AcDbSymbolTableRecord
100
AcDbViewTableRecord
  2
BOTTOM
 70
     0
 40
9.204294
 10
0.0
 20
0.0
 41
12.814499
 11
0.0
 21
0.0
 31
-1.0
 12
0.0
 22
0.0
 32
0.0
 42
50.0
 43
27.39911
 44
-27.39911
 50
180.0
 71
    16
281
     0
 72
     0
110
0.0
120
0.0
130
0.0
111
1.0
121
0.0
131
0.0
112
0.0
122
1.0
132
0.0
  0
VIEW
  5
294
100
AcDbSymbolTableRecord
100
AcDbViewTableRecord
  2
LEFT
 70
     0
 40
54.79822
 10
0.0
 20
0.0
 41
9.204294
 11
-1.0
 21
0.0
 31
0.0
 12
0.0
 22
0.0
 32
0.0
 42
50.0
 43
27.782926
 44
-27.782926
 50
0.0
 71
    16
281
     0
 72
     0
110
0.0
120
0.0
130
0.0
111
1.0
121
0.0
131
0.0
112
0.0
122
1.0
132
0.0
  0
VIEW
  5
295
100
AcDbSymbolTableRecord
100
AcDbViewTableRecord
  2
TFR-ISO
 70
     0
 40
53.731694
 10
0.0
 20
0.0
 41
15.569638
 11
0.57735
 21
-0.57735
 31
0.57735
 12
0.0
 22
0.0
 32
0.0
 42
50.0
 43
27.971005
 44
-27.971005
 50
0.0
 71
    16
281
     0
 72
     0
110
0.0
120
0.0
130
0.0
111
1.0
121
0.0
131
0.0
112
0.0
122
1.0
132
0.0
  0
VIEW
  5
296
100
AcDbSymbolTableRecord
100
AcDbViewTableRecord
  2
TFR-TRI
 70
     0
 40
56.702455
 10
0.0
 20
0.0
 41
15.227649
 11
0.718873
 21
-0.585049
 31
0.375419
 12
0.0
 22
0.0
 32
0.0
 42
50.0
 43
28.084088
 44
-28.084088
 50
0.0
 71
    16
281
     0
 72
     0
110
0.0
120
0.0
130
0.0
111
1.0
121
0.0
131
0.0
112
0.0
122
1.0
132
0.0
  0
ENDTAB
  0
TABLE
  2
UCS
  5
6
100
AcDbSymbolTable
 70
     0
  0
ENDTAB
  0
TABLE
  2
APPID
  5
8
100
AcDbSymbolTable
 70
     1
  0
APPID
  5
16
100
AcDbSymbolTableRecord
100
AcDbRegAppTableRecord
  2
ACAD
 70
     0
  0
ENDTAB
  0
TABLE
  2
DIMSTYLE
  5
9
100
AcDbSymbolTable
 70
     1
100
AcDbDimStyleTable
 71
     0
  0
DIMSTYLE
105
18
100
AcDbSymbolTableRecord
100
AcDbDimStyleTableRecord
  2
Standard
 70
     0
  3

  4

 40
1.0
 41
0.18
 42
0.0625
 43
0.38
 44
0.18
 45
0.0
 46
0.0
 47
0.0
 48
0.0
 71
     0
 72
     0
 73
     1
 74
     1
 75
     0
 76
     0
 77
     0
 78
     0
 79
     0
140
0.18
141
0.09
142
0.0
143
25.4
144
1.0
145
0.0
146
1.0
147
0.09
148
0.0
170
     0
171
     2
172
     0
173
     0
174
     0
175
     0
176
     0
177
     0
178
     0
179
     0
271
     4
272
     4
273
     2
274
     2
275
     0
276
     0
277
     2
278
    46
279
     0
280
     0
281
     0
282
     0
283
     1
284
     0
285
     0
286
     0
288
     0
289
     3
340
17
341
0
342
0
343
0
344
0
371
    -2
372
    -2
  0
ENDTAB
  0
TABLE
  2
BLOCK_RECORD
  5
1
100
AcDbSymbolTable
 70
     0
  0
BLOCK_RECORD
  5
A
100
AcDbSymbolTableRecord
100
AcDbBlockTableRecord
  2
*MODEL_SPACE
340
20
  0
BLOCK_RECORD
  5
B
100
AcDbSymbolTableRecord
100
AcDbBlockTableRecord
  2
*PAPER_SPACE
340
21
  0
ENDTAB
  0
ENDSEC
  0
SECTION
  2
BLOCKS
  0
BLOCK
  5
D
100
AcDbEntity
  8
0
390
0
100
AcDbBlockBegin
  2
*MODEL_SPACE
 70
     0
 10
0.0
 20
0.0
 30
0.0
  3
*MODEL_SPACE
  1

  0
ENDBLK
  5
E
100
AcDbEntity
  8
0
390
0
100
AcDbBlockEnd
  0
BLOCK
  5
F
100
AcDbEntity
 67
     1
  8
0
390
0
100
AcDbBlockBegin
  2
*PAPER_SPACE
 70
     0
 10
0.0
 20
0.0
 30
0.0
  3
*PAPER_SPACE
  1

  0
ENDBLK
  5
10
100
AcDbEntity
 67
     1
  8
0
390
0
100
AcDbBlockEnd
  0
ENDSEC
  0
SECTION
  2
ENTITIES
  0
POINT
  5
2A
100
AcDbEntity
  8
1
390
0
  6
Continuous
 62
    87
100
AcDbPoint
 10
44.4404
 20
20.247135
 30
0.0
  0
POINT
  5
2C
100
AcDbEntity
  8
1
390
0
  6
Continuous
 62
    87
100
AcDbPoint
 10
44.4404
 20
20.247135
 30
0.0
  0
POINT
  5
2D
100
AcDbEntity
  8
1
390
0
  6
Continuous
 62
    87
100
AcDbPoint
 10
44.4404
 20
20.247135
 30
0.0
  0
POINT
  5
2E
100
AcDbEntity
  8
1
390
0
  6
Continuous
 62
    87
100
AcDbPoint
 10
100.287976
 20
18.976383
 30
0.0
  0
POINT
  5
2F
100
AcDbEntity
  8
1
390
0
  6
Continuous
 62
    87
100
AcDbPoint
 10
44.4404
 20
20.247135
 30
0.0
  0
POINT
  5
30
100
AcDbEntity
  8
1
390
0
  6
Continuous
 62
    87
100
AcDbPoint
 10
100.287976
 20
18.976383
 30
0.0
  0
POINT
  5
31
100
AcDbEntity
  8
1
390
0
  6
Continuous
 62
    87
100
AcDbPoint
 10
83.076838
 20
19.197038
 30
0.0
  0
POINT
  5
32
100
AcDbEntity
  8
1
390
0
  6
Continuous
 62
    87
100
AcDbPoint
 10
0.0
 20
1.5
 30
0.0
  0
POINT
  5
33
100
AcDbEntity
  8
1
390
0
  6
Continuous
 62
    87
100
AcDbPoint
 10
79.851599
 20
14.455893
 30
0.0
  0
LINE
  5
34
100
AcDbEntity
  8
1
390
0
  6
Continuous
 62
   172
100
AcDbLine
 10
32.089428
 20
-8.947872
 30
0.0
 11
47.089428
 21
-8.947872
 31
0.0
  0
LINE
  5
35
100
AcDbEntity
  8
1
390
0
  6
Continuous
 62
   172
100
AcDbLine
 10
70.0
 20
-58.501872
 30
38.885625
 11
70.0
 21
-58.501872
 31
33.114375
  0
LINE
  5
36
100
AcDbEntity
  8
1
390
0
  6
Continuous
 62
    87
100
AcDbLine
 10
54.541192
 20
22.627005
 30
0.0
 11
55.335552
 21
22.627005
 31
0.0
  0
LINE
  5
37
100
AcDbEntity
  8
1
390
0
  6
Continuous
 62
    87
100
AcDbLine
 10
84.991666
 20
35.689818
 30
0.0
 11
84.991666
 21
19.184778
 31
0.0
  0
LINE
  5
38
100
AcDbEntity
  8
1
390
0
  6
Continuous
 62
    87
100
AcDbLine
 10
46.162751
 20
40.369288
 30
0.0
 11
22.140768
 21
40.369288
 31
0.0
  0
LINE
  5
39
100
AcDbEntity
  8
1
390
0
  6
Continuous
 62
    87
100
AcDbLine
 10
55.335552
 20
22.715268
 30
0.0
 11
55.335552
 21
46.104763
 31
0.0
  0
LINE
  5
3A
100
AcDbEntity
  8
1
390
0
  6
Continuous
 62
    87
100
AcDbLine
 10
108.0
 20
1.5
 30
0.0
 11
108.0
 21
0.0
 31
0.0
  0
LINE
  5
3B
100
AcDbEntity
  8
1
390
0
  6
Continuous
 62
   172
100
AcDbLine
 10
0.0
 20
-62.947872
 30
0.0
 11
108.0
 21
-62.947872
 31
0.0
  0
LINE
  5
3C
100
AcDbEntity
  8
1
390
0
  6
Continuous
 62
    87
100
AcDbLine
 10
-0.16
 20
-0.16
 30
0.0
 11
107.84
 21
-0.16
 31
0.0
  0
LINE
  5
3D
100
AcDbEntity
  8
1
390
0
  6
Continuous
 62
    87
100
AcDbLine
 10
78.195474
 20
34.98372
 30
0.0
 11
78.195474
 21
43.280371
 31
0.0
  0
LINE
  5
3E
100
AcDbEntity
  8
1
390
0
  6
Continuous
 62
    87
100
AcDbLine
 10
28.672
 20
48.00512
 30
0.0
 11
64.38912
 21
48.08704
 31
0.0
  0
LINE
  5
3F
100
AcDbEntity
  8
1
390
0
  6
Continuous
 62
   172
100
AcDbLine
 10
80.5
 20
-45.965152
 30
36.0
 11
108.0
 21
-45.965152
 31
36.0
  0
LINE
  5
40
100
AcDbEntity
  8
1
390
0
  6
Continuous
 62
    87
100
AcDbLine
 10
83.187166
 20
19.197038
 30
0.0
 11
83.076838
 21
19.197038
 31
0.0
  0
LINE
  5
41
100
AcDbEntity
  8
1
390
0
  6
Continuous
 62
    87
100
AcDbLine
 10
100.40713
 20
18.499767
 30
0.0
 11
99.630422
 21
18.499767
 31
0.0
  0
LINE
  5
42
100
AcDbEntity
  8
1
390
0
  6
Continuous
 62
    87
100
AcDbLine
 10
65.507135
 20
46.199769
 30
0.0
 11
28.099113
 21
46.199769
 31
0.0
  0
LINE
  5
43
100
AcDbEntity
  8
1
390
0
  6
Continuous
 62
    87
100
AcDbLine
 10
54.546068
 20
22.948184
 30
0.0
 11
54.546068
 21
23.742544
 31
0.0
  0
LINE
  5
44
100
AcDbEntity
  8
1
390
0
  6
Continuous
 62
    87
100
AcDbLine
 10
69.374125
 20
35.040111
 30
0.0
 11
69.374125
 21
34.245751
 31
0.0
  0
LINE
  5
45
100
AcDbEntity
  8
1
390
0
  6
Continuous
 62
    87
100
AcDbLine
 10
101.196615
 20
1.426414
 30
0.0
 11
101.196615
 21
18.443375
 31
0.0
  0
LINE
  5
46
100
AcDbEntity
  8
1
390
0
  6
Continuous
 62
    87
100
AcDbLine
 10
100.419907
 20
18.443375
 30
0.0
 11
100.419907
 21
1.426414
 31
0.0
  0
LINE
  5
47
100
AcDbEntity
  8
1
390
0
  6
Continuous
 62
    87
100
AcDbLine
 10
101.196615
 20
18.443375
 30
0.0
 11
70.198914
 21
18.443375
 31
0.0
  0
LINE
  5
48
100
AcDbEntity
  8
1
390
0
  6
Continuous
 62
    87
100
AcDbLine
 10
70.198914
 20
19.220083
 30
0.0
 11
101.196615
 21
19.220083
 31
0.0
  0
LINE
  5
49
100
AcDbEntity
  8
1
390
0
  6
Continuous
 62
    87
100
AcDbLine
 10
101.196615
 20
19.220083
 30
0.0
 11
101.196615
 21
18.443375
 31
0.0
  0
LINE
  5
4A
100
AcDbEntity
  8
1
390
0
  6
Continuous
 62
    87
100
AcDbLine
 10
70.163609
 20
18.47868
 30
0.0
 11
69.369249
 21
18.47868
 31
0.0
  0
LINE
  5
4B
100
AcDbEntity
  8
1
390
0
  6
Continuous
 62
    87
100
AcDbLine
 10
69.369249
 20
18.47868
 30
0.0
 11
69.369249
 21
34.98372
 31
0.0
  0
LINE
  5
4C
100
AcDbEntity
  8
1
390
0
  6
Continuous
 62
    87
100
AcDbLine
 10
69.369249
 20
22.891792
 30
0.0
 11
55.335552
 21
22.891792
 31
0.0
  0
LINE
  5
4D
100
AcDbEntity
  8
1
390
0
  6
Continuous
 62
    87
100
AcDbLine
 10
55.335552
 20
23.686152
 30
0.0
 11
69.369249
 21
23.686152
 31
0.0
  0
LINE
  5
4E
100
AcDbEntity
  8
1
390
0
  6
Continuous
 62
   172
100
AcDbLine
 10
80.5
 20
-61.697872
 30
0.0
 11
80.5
 21
-35.197872
 31
0.0
  0
LINE
  5
4F
100
AcDbEntity
  8
1
390
0
  6
Continuous
 62
    87
100
AcDbLine
 10
54.541192
 20
46.104763
 30
0.0
 11
54.541192
 21
22.627005
 31
0.0
  0
LINE
  5
50
100
AcDbEntity
  8
1
390
0
  6
Continuous
 62
   172
100
AcDbLine
 10
70.0
 20
-79.215152
 30
36.0
 11
123.182184
 21
-79.215152
 31
36.0
  0
LINE
  5
51
100
AcDbEntity
  8
1
390
0
  6
Continuous
 62
   172
100
AcDbLine
 10
80.0
 20
-61.697872
 30
0.0
 11
80.0
 21
-35.197872
 31
0.0
  0
LINE
  5
52
100
AcDbEntity
  8
1
390
0
  6
Continuous
 62
    87
100
AcDbLine
 10
55.335552
 20
34.98372
 30
0.0
 11
77.312851
 21
34.98372
 31
0.0
  0
LINE
  5
53
100
AcDbEntity
  8
1
390
0
  6
Continuous
 62
   172
100
AcDbLine
 10
-9.910572
 20
-38.947872
 30
0.0
 11
0.0
 21
-38.947872
 31
0.0
  0
LINE
  5
54
100
AcDbEntity
  8
1
390
0
  6
Continuous
 62
   172
100
AcDbLine
 10
62.5
 20
-35.197872
 30
0.0
 11
62.5
 21
-12.198145
 31
0.0
  0
LINE
  5
55
100
AcDbEntity
  8
1
390
0
  6
Continuous
 62
    87
100
AcDbLine
 10
70.163609
 20
34.189359
 30
0.0
 11
84.197306
 21
34.189359
 31
0.0
  0
LINE
  5
56
100
AcDbEntity
  8
1
390
0
  6
Continuous
 62
    87
100
AcDbLine
 10
77.401113
 20
35.77808
 30
0.0
 11
55.335552
 21
35.77808
 31
0.0
  0
LINE
  5
57
100
AcDbEntity
  8
1
390
0
  6
Continuous
 62
   172
100
AcDbLine
 10
70.0
 20
-73.833872
 30
33.114375
 11
70.0
 21
-73.833872
 31
38.885625
  0
LINE
  5
58
100
AcDbEntity
  8
1
390
0
  6
Continuous
 62
    87
100
AcDbLine
 10
77.401113
 20
43.545157
 30
0.0
 11
77.401113
 21
34.98372
 31
0.0
  0
LINE
  5
59
100
AcDbEntity
  8
1
390
0
  6
Continuous
 62
    87
100
AcDbLine
 10
84.165727
 20
35.746209
 30
0.0
 11
84.960087
 21
35.746209
 31
0.0
  0
LINE
  5
5A
100
AcDbEntity
  8
1
390
0
  6
Continuous
 62
    87
100
AcDbLine
 10
-0.920324
 20
1.610568
 30
0.0
 11
108.0
 21
1.5
 31
0.0
  0
LINE
  5
5B
100
AcDbEntity
  8
1
390
0
  6
Continuous
 62
   172
100
AcDbLine
 10
88.75
 20
-35.197872
 30
0.0
 11
88.75
 21
-12.198145
 31
0.0
  0
LINE
  5
5C
100
AcDbEntity
  8
1
390
0
  6
Continuous
 62
   172
100
AcDbLine
 10
-9.910572
 20
-38.197872
 30
0.0
 11
0.0
 21
-38.197872
 31
0.0
  0
LINE
  5
5D
100
AcDbEntity
  8
1
390
0
  6
Continuous
 62
    87
100
AcDbLine
 10
49.12998
 20
37.08907
 30
0.0
 11
49.12998
 21
6.963787
 31
0.0
  0
LINE
  5
5E
100
AcDbEntity
  8
1
390
0
  6
Continuous
 62
    87
100
AcDbLine
 10
18.820632
 20
37.08907
 30
0.0
 11
18.820632
 21
7.822757
 31
0.0
  0
LINE
  5
5F
100
AcDbEntity
  8
1
390
0
  6
Continuous
 62
    87
100
AcDbLine
 10
45.91498
 20
4.362337
 30
0.0
 11
21.52025
 21
4.362337
 31
0.0
  0
LINE
  5
60
100
AcDbEntity
  8
1
390
0
  6
Continuous
 62
    87
100
AcDbLine
 10
84.461973
 20
1.426414
 30
0.0
 11
84.461973
 21
18.443375
 31
0.0
  0
LINE
  5
61
100
AcDbEntity
  8
1
390
0
  6
Continuous
 62
    87
100
AcDbLine
 10
83.685265
 20
18.443375
 30
0.0
 11
83.685265
 21
1.426414
 31
0.0
  0
LINE
  5
62
100
AcDbEntity
  8
1
390
0
  6
Continuous
 62
    87
100
AcDbLine
 10
79.851599
 20
18.448473
 30
0.0
 11
79.851599
 21
14.455893
 31
0.0
  0
LINE
  5
63
100
AcDbEntity
  8
1
390
0
  6
Continuous
 62
    87
100
AcDbLine
 10
79.851599
 20
14.455893
 30
0.0
 11
83.844179
 21
14.455893
 31
0.0
  0
LINE
  5
64
100
AcDbEntity
  8
1
390
0
  6
Continuous
 62
    87
100
AcDbLine
 10
83.706504
 20
13.629842
 30
0.0
 11
79.713924
 21
13.629842
 31
0.0
  0
LINE
  5
65
100
AcDbEntity
  8
1
390
0
  6
Continuous
 62
    87
100
AcDbLine
 10
79.713924
 20
13.629842
 30
0.0
 11
79.713924
 21
14.455893
 31
0.0
  0
LINE
  5
66
100
AcDbEntity
  8
1
390
0
  6
Continuous
 62
    87
100
AcDbLine
 10
79.713924
 20
13.629842
 30
0.0
 11
78.887873
 21
13.629842
 31
0.0
  0
LINE
  5
67
100
AcDbEntity
  8
1
390
0
  6
Continuous
 62
    87
100
AcDbLine
 10
78.887873
 20
13.629842
 30
0.0
 11
78.887873
 21
18.448473
 31
0.0
  0
LINE
  5
68
100
AcDbEntity
  8
1
390
0
  6
Continuous
 62
    87
100
AcDbLine
 10
5.632801
 20
1.59596
 30
0.0
 11
4.881761
 21
1.59596
 31
0.0
  0
LINE
  5
69
100
AcDbEntity
  8
1
390
0
  6
Continuous
 62
    87
100
AcDbLine
 10
4.881761
 20
24.033286
 30
0.0
 11
0.65716
 21
24.033286
 31
0.0
  0
LINE
  5
6A
100
AcDbEntity
  8
1
390
0
  6
Continuous
 62
    87
100
AcDbLine
 10
4.881761
 20
24.972086
 30
0.0
 11
1.03268
 21
24.972086
 31
0.0
  0
LINE
  5
6B
100
AcDbEntity
  8
1
390
0
  6
Continuous
 62
    87
100
AcDbLine
 10
5.632801
 20
26.004767
 30
0.0
 11
4.881761
 21
26.004767
 31
0.0
  0
LINE
  5
6C
100
AcDbEntity
  8
1
390
0
  6
Continuous
 62
    87
100
AcDbLine
 10
4.881761
 20
26.004767
 30
0.0
 11
4.881761
 21
1.68984
 31
0.0
  0
LINE
  5
6D
100
AcDbEntity
  8
1
390
0
  6
Continuous
 62
    87
100
AcDbLine
 10
5.632801
 20
25.817006
 30
0.0
 11
5.632801
 21
1.59596
 31
0.0
  0
LINE
  5
6E
100
AcDbEntity
  8
1
390
0
  6
Continuous
 62
   172
100
AcDbLine
 10
-11.520818
 20
-8.947872
 30
0.0
 11
118.269741
 21
-8.947872
 31
0.0
  0
LINE
  5
6F
100
AcDbEntity
  8
1
390
0
  6
Continuous
 62
   172
100
AcDbLine
 10
0.0
 20
-38.947872
 30
0.0
 11
0.0
 21
-62.947872
 31
0.0
  0
LINE
  5
70
100
AcDbEntity
  8
1
390
0
  6
Continuous
 62
   172
100
AcDbLine
 10
108.0
 20
0.0
 30
0.0
 11
108.0
 21
-62.947872
 31
0.0
  0
LINE
  5
71
100
AcDbEntity
  8
1
390
0
  6
Continuous
 62
   172
100
AcDbLine
 10
0.0
 20
-62.197872
 30
0.0
 11
108.0
 21
-62.197872
 31
0.0
  0
LINE
  5
72
100
AcDbEntity
  8
1
390
0
  6
Continuous
 62
   172
100
AcDbLine
 10
0.0
 20
-61.697872
 30
0.0
 11
80.0
 21
-61.697872
 31
0.0
  0
LINE
  5
73
100
AcDbEntity
  8
1
390
0
  6
Continuous
 62
   172
100
AcDbLine
 10
0.0
 20
-57.697872
 30
0.0
 11
80.0
 21
-57.697872
 31
0.0
  0
LINE
  5
74
100
AcDbEntity
  8
1
390
0
  6
Continuous
 62
   172
100
AcDbLine
 10
62.5
 20
-35.197872
 30
0.0
 11
88.75
 21
-35.197872
 31
0.0
  0
LINE
  5
75
100
AcDbEntity
  8
1
390
0
  6
Continuous
 62
    87
100
AcDbLine
 10
0.0
 20
0.0
 30
0.0
 11
0.0
 21
1.5
 31
0.0
  0
LINE
  5
76
100
AcDbEntity
  8
1
390
0
  6
Continuous
 62
   172
100
AcDbLine
 10
63.25
 20
-34.447872
 30
0.0
 11
63.25
 21
-12.198145
 31
0.0
  0
LINE
  5
77
100
AcDbEntity
  8
1
390
0
  6
Continuous
 62
   172
100
AcDbLine
 10
63.25
 20
-34.447872
 30
0.0
 11
88.0
 21
-34.447872
 31
0.0
  0
LINE
  5
78
100
AcDbEntity
  8
1
390
0
  6
Continuous
 62
    87
100
AcDbLine
 10
84.197306
 20
19.184778
 30
0.0
 11
84.197306
 21
35.689818
 31
0.0
  0
LINE
  5
79
100
AcDbEntity
  8
1
390
0
  6
Continuous
 62
   172
100
AcDbLine
 10
80.5
 20
-45.215152
 30
36.0
 11
108.0
 21
-45.215152
 31
36.0
  0
LINE
  5
7A
100
AcDbEntity
  8
1
390
0
  6
Continuous
 62
    87
100
AcDbLine
 10
-1.125805
 20
2.352261
 30
0.0
 11
0.944925
 21
2.352261
 31
0.0
  0
LINE
  5
7B
100
AcDbEntity
  8
1
390
0
  6
Continuous
 62
   172
100
AcDbLine
 10
-0.75
 20
-38.947872
 30
0.0
 11
-0.75
 21
-62.947872
 31
0.0
  0
LINE
  5
7C
100
AcDbEntity
  8
1
390
0
  6
Continuous
 62
    87
100
AcDbLine
 10
84.197306
 20
34.98372
 30
0.0
 11
70.163609
 21
34.98372
 31
0.0
  0
LINE
  5
7D
100
AcDbEntity
  8
1
390
0
  6
Continuous
 62
   172
100
AcDbLine
 10
88.0
 20
-34.447872
 30
0.0
 11
88.0
 21
-12.198145
 31
0.0
  0
LINE
  5
7E
100
AcDbEntity
  8
1
390
0
  6
Continuous
 62
    87
100
AcDbLine
 10
70.163609
 20
18.47868
 30
0.0
 11
70.163609
 21
34.98372
 31
0.0
  0
ARC
  5
7F
100
AcDbEntity
  8
1
390
0
  6
Continuous
 62
    87
100
AcDbCircle
 10
45.933659
 20
7.512897
 30
0.0
 40
3.131857
100
AcDbArc
 50
265.480018
 51
357.049667
  0
ARC
  5
80
100
AcDbEntity
  8
1
390
0
  6
Continuous
 62
    87
100
AcDbCircle
 10
31.903306
 20
13.382994
 30
0.0
 40
34.858571
100
AcDbArc
 50
83.250814
 51
202.933351
  0
ARC
  5
81
100
AcDbEntity
  8
1
390
0
  6
Continuous
 62
    87
100
AcDbCircle
 10
31.266593
 20
13.768609
 30
0.0
 40
32.405492
100
AcDbArc
 50
95.241874
 51
201.956521
  0
ARC
  5
82
100
AcDbEntity
  8
1
390
0
  6
Continuous
 62
    87
100
AcDbCircle
 10
61.077677
 20
1.297039
 30
0.0
 40
46.933898
100
AcDbArc
 50
0.302205
 51
85.767273
  0
ARC
  5
83
100
AcDbEntity
  8
1
390
0
  6
Continuous
 62
    87
100
AcDbCircle
 10
61.320775
 20
1.36917
 30
0.0
 40
45.035572
100
AcDbArc
 50
0.223175
 51
84.912925
  0
ARC
  5
84
100
AcDbEntity
  8
1
390
0
  6
Continuous
 62
    87
100
AcDbCircle
 10
45.939248
 20
37.253743
 30
0.0
 40
3.131857
100
AcDbArc
 50
355.480018
 51
447.049667
  0
ARC
  5
85
100
AcDbEntity
  8
1
390
0
  6
Continuous
 62
    87
100
AcDbCircle
 10
22.060268
 20
37.078469
 30
0.0
 40
3.299913
100
AcDbArc
 50
88.582099
 51
180.151748
  0
ARC
  5
86
100
AcDbEntity
  8
1
390
0
  6
Continuous
 62
    87
100
AcDbCircle
 10
21.877784
 20
7.490043
 30
0.0
 40
3.131857
100
AcDbArc
 50
175.480018
 51
267.049667
  0
POLYLINE
  5
87
100
AcDbEntity
  8
1
390
0
  6
Continuous
 62
   172
100
AcDb3dPolyline
 66
     1
 10
0.0
 20
0.0
 30
0.0
 70
     8
210
0.0
220
0.0
230
-1.0
  0
VERTEX
  5
88
100
AcDbEntity
  8
1
390
0
  6
Continuous
 62
   172
100
AcDbVertex
100
AcDb3dPolylineVertex
 10
110.089428
 20
-50.572873
 30
0.0
 70
    32
  0
VERTEX
  5
89
100
AcDbEntity
  8
1
390
0
  6
Continuous
 62
   172
100
AcDbVertex
100
AcDb3dPolylineVertex
 10
110.088583
 20
-50.826281
 30
0.0
 70
    32
  0
VERTEX
  5
8A
100
AcDbEntity
  8
1
390
0
  6
Continuous
 62
   172
100
AcDbVertex
100
AcDb3dPolylineVertex
 10
110.086046
 20
-51.079675
 30
0.0
 70
    32
  0
VERTEX
  5
8B
100
AcDbEntity
  8
1
390
0
  6
Continuous
 62
   172
100
AcDbVertex
100
AcDb3dPolylineVertex
 10
110.081818
 20
-51.333041
 30
0.0
 70
    32
  0
VERTEX
  5
8C
100
AcDbEntity
  8
1
390
0
  6
Continuous
 62
   172
100
AcDbVertex
100
AcDb3dPolylineVertex
 10
110.075899
 20
-51.586364
 30
0.0
 70
    32
  0
VERTEX
  5
8D
100
AcDbEntity
  8
1
390
0
  6
Continuous
 62
   172
100
AcDbVertex
100
AcDb3dPolylineVertex
 10
110.068289
 20
-51.83963
 30
0.0
 70
    32
  0
VERTEX
  5
8E
100
AcDbEntity
  8
1
390
0
  6
Continuous
 62
   172
100
AcDbVertex
100
AcDb3dPolylineVertex
 10
110.05899
 20
-52.092824
 30
0.0
 70
    32
  0
VERTEX
  5
8F
100
AcDbEntity
  8
1
390
0
  6
Continuous
 62
   172
100
AcDbVertex
100
AcDb3dPolylineVertex
 10
110.048001
 20
-52.345933
 30
0.0
 70
    32
  0
VERTEX
  5
90
100
AcDbEntity
  8
1
390
0
  6
Continuous
 62
   172
100
AcDbVertex
100
AcDb3dPolylineVertex
 10
110.035323
 20
-52.598941
 30
0.0
 70
    32
  0
VERTEX
  5
91
100
AcDbEntity
  8
1
390
0
  6
Continuous
 62
   172
100
AcDbVertex
100
AcDb3dPolylineVertex
 10
110.020956
 20
-52.851836
 30
0.0
 70
    32
  0
VERTEX
  5
92
100
AcDbEntity
  8
1
390
0
  6
Continuous
 62
   172
100
AcDbVertex
100
AcDb3dPolylineVertex
 10
110.004902
 20
-53.104601
 30
0.0
 70
    32
  0
VERTEX
  5
93
100
AcDbEntity
  8
1
390
0
  6
Continuous
 62
   172
100
AcDbVertex
100
AcDb3dPolylineVertex
 10
109.987162
 20
-53.357225
 30
0.0
 70
    32
  0
VERTEX
  5
94
100
AcDbEntity
  8
1
390
0
  6
Continuous
 62
   172
100
AcDbVertex
100
AcDb3dPolylineVertex
 10
109.967736
 20
-53.609691
 30
0.0
 70
    32
  0
VERTEX
  5
95
100
AcDbEntity
  8
1
390
0
  6
Continuous
 62
   172
100
AcDbVertex
100
AcDb3dPolylineVertex
 10
109.946626
 20
-53.861986
 30
0.0
 70
    32
  0
VERTEX
  5
96
100
AcDbEntity
  8
1
390
0
  6
Continuous
 62
   172
100
AcDbVertex
100
AcDb3dPolylineVertex
 10
109.923832
 20
-54.114096
 30
0.0
 70
    32
  0
VERTEX
  5
97
100
AcDbEntity
  8
1
390
0
  6
Continuous
 62
   172
100
AcDbVertex
100
AcDb3dPolylineVertex
 10
109.899357
 20
-54.366005
 30
0.0
 70
    32
  0
VERTEX
  5
98
100
AcDbEntity
  8
1
390
0
  6
Continuous
 62
   172
100
AcDbVertex
100
AcDb3dPolylineVertex
 10
109.8732
 20
-54.617702
 30
0.0
 70
    32
  0
VERTEX
  5
99
100
AcDbEntity
  8
1
390
0
  6
Continuous
 62
   172
100
AcDbVertex
100
AcDb3dPolylineVertex
 10
109.845365
 20
-54.86917
 30
0.0
 70
    32
  0
VERTEX
  5
9A
100
AcDbEntity
  8
1
390
0
  6
Continuous
 62
   172
100
AcDbVertex
100
AcDb3dPolylineVertex
 10
109.815852
 20
-55.120395
 30
0.0
 70
    32
  0
VERTEX
  5
9B
100
AcDbEntity
  8
1
390
0
  6
Continuous
 62
   172
100
AcDbVertex
100
AcDb3dPolylineVertex
 10
109.784664
 20
-55.371365
 30
0.0
 70
    32
  0
VERTEX
  5
9C
100
AcDbEntity
  8
1
390
0
  6
Continuous
 62
   172
100
AcDbVertex
100
AcDb3dPolylineVertex
 10
109.751801
 20
-55.622064
 30
0.0
 70
    32
  0
VERTEX
  5
9D
100
AcDbEntity
  8
1
390
0
  6
Continuous
 62
   172
100
AcDbVertex
100
AcDb3dPolylineVertex
 10
109.717266
 20
-55.872478
 30
0.0
 70
    32
  0
VERTEX
  5
9E
100
AcDbEntity
  8
1
390
0
  6
Continuous
 62
   172
100
AcDbVertex
100
AcDb3dPolylineVertex
 10
109.68106
 20
-56.122594
 30
0.0
 70
    32
  0
VERTEX
  5
9F
100
AcDbEntity
  8
1
390
0
  6
Continuous
 62
   172
100
AcDbVertex
100
AcDb3dPolylineVertex
 10
109.643186
 20
-56.372396
 30
0.0
 70
    32
  0
VERTEX
  5
A0
100
AcDbEntity
  8
1
390
0
  6
Continuous
 62
   172
100
AcDbVertex
100
AcDb3dPolylineVertex
 10
109.603647
 20
-56.621872
 30
0.0
 70
    32
  0
VERTEX
  5
A1
100
AcDbEntity
  8
1
390
0
  6
Continuous
 62
   172
100
AcDbVertex
100
AcDb3dPolylineVertex
 10
109.562443
 20
-56.871007
 30
0.0
 70
    32
  0
VERTEX
  5
A2
100
AcDbEntity
  8
1
390
0
  6
Continuous
 62
   172
100
AcDbVertex
100
AcDb3dPolylineVertex
 10
109.519577
 20
-57.119786
 30
0.0
 70
    32
  0
VERTEX
  5
A3
100
AcDbEntity
  8
1
390
0
  6
Continuous
 62
   172
100
AcDbVertex
100
AcDb3dPolylineVertex
 10
109.475053
 20
-57.368197
 30
0.0
 70
    32
  0
VERTEX
  5
A4
100
AcDbEntity
  8
1
390
0
  6
Continuous
 62
   172
100
AcDbVertex
100
AcDb3dPolylineVertex
 10
109.428872
 20
-57.616224
 30
0.0
 70
    32
  0
VERTEX
  5
A5
100
AcDbEntity
  8
1
390
0
  6
Continuous
 62
   172
100
AcDbVertex
100
AcDb3dPolylineVertex
 10
109.381036
 20
-57.863855
 30
0.0
 70
    32
  0
VERTEX
  5
A6
100
AcDbEntity
  8
1
390
0
  6
Continuous
 62
   172
100
AcDbVertex
100
AcDb3dPolylineVertex
 10
109.33155
 20
-58.111074
 30
0.0
 70
    32
  0
VERTEX
  5
A7
100
AcDbEntity
  8
1
390
0
  6
Continuous
 62
   172
100
AcDbVertex
100
AcDb3dPolylineVertex
 10
109.280414
 20
-58.357868
 30
0.0
 70
    32
  0
VERTEX
  5
A8
100
AcDbEntity
  8
1
390
0
  6
Continuous
 62
   172
100
AcDbVertex
100
AcDb3dPolylineVertex
 10
109.227633
 20
-58.604223
 30
0.0
 70
    32
  0
VERTEX
  5
A9
100
AcDbEntity
  8
1
390
0
  6
Continuous
 62
   172
100
AcDbVertex
100
AcDb3dPolylineVertex
 10
109.17321
 20
-58.850126
 30
0.0
 70
    32
  0
VERTEX
  5
AA
100
AcDbEntity
  8
1
390
0
  6
Continuous
 62
   172
100
AcDbVertex
100
AcDb3dPolylineVertex
 10
109.117146
 20
-59.095562
 30
0.0
 70
    32
  0
VERTEX
  5
AB
100
AcDbEntity
  8
1
390
0
  6
Continuous
 62
   172
100
AcDbVertex
100
AcDb3dPolylineVertex
 10
109.059447
 20
-59.340518
 30
0.0
 70
    32
  0
VERTEX
  5
AC
100
AcDbEntity
  8
1
390
0
  6
Continuous
 62
   172
100
AcDbVertex
100
AcDb3dPolylineVertex
 10
109.000113
 20
-59.584979
 30
0.0
 70
    32
  0
VERTEX
  5
AD
100
AcDbEntity
  8
1
390
0
  6
Continuous
 62
   172
100
AcDbVertex
100
AcDb3dPolylineVertex
 10
108.939151
 20
-59.828932
 30
0.0
 70
    32
  0
VERTEX
  5
AE
100
AcDbEntity
  8
1
390
0
  6
Continuous
 62
   172
100
AcDbVertex
100
AcDb3dPolylineVertex
 10
108.876561
 20
-60.072363
 30
0.0
 70
    32
  0
VERTEX
  5
AF
100
AcDbEntity
  8
1
390
0
  6
Continuous
 62
   172
100
AcDbVertex
100
AcDb3dPolylineVertex
 10
108.812349
 20
-60.315259
 30
0.0
 70
    32
  0
VERTEX
  5
B0
100
AcDbEntity
  8
1
390
0
  6
Continuous
 62
   172
100
AcDbVertex
100
AcDb3dPolylineVertex
 10
108.746517
 20
-60.557605
 30
0.0
 70
    32
  0
VERTEX
  5
B1
100
AcDbEntity
  8
1
390
0
  6
Continuous
 62
   172
100
AcDbVertex
100
AcDb3dPolylineVertex
 10
108.67907
 20
-60.799389
 30
0.0
 70
    32
  0
VERTEX
  5
B2
100
AcDbEntity
  8
1
390
0
  6
Continuous
 62
   172
100
AcDbVertex
100
AcDb3dPolylineVertex
 10
108.610011
 20
-61.040596
 30
0.0
 70
    32
  0
VERTEX
  5
B3
100
AcDbEntity
  8
1
390
0
  6
Continuous
 62
   172
100
AcDbVertex
100
AcDb3dPolylineVertex
 10
108.539344
 20
-61.281213
 30
0.0
 70
    32
  0
VERTEX
  5
B4
100
AcDbEntity
  8
1
390
0
  6
Continuous
 62
   172
100
AcDbVertex
100
AcDb3dPolylineVertex
 10
108.467073
 20
-61.521226
 30
0.0
 70
    32
  0
VERTEX
  5
B5
100
AcDbEntity
  8
1
390
0
  6
Continuous
 62
   172
100
AcDbVertex
100
AcDb3dPolylineVertex
 10
108.393202
 20
-61.760622
 30
0.0
 70
    32
  0
VERTEX
  5
B6
100
AcDbEntity
  8
1
390
0
  6
Continuous
 62
   172
100
AcDbVertex
100
AcDb3dPolylineVertex
 10
108.317736
 20
-61.999387
 30
0.0
 70
    32
  0
VERTEX
  5
B7
100
AcDbEntity
  8
1
390
0
  6
Continuous
 62
   172
100
AcDbVertex
100
AcDb3dPolylineVertex
 10
108.240678
 20
-62.237508
 30
0.0
 70
    32
  0
VERTEX
  5
B8
100
AcDbEntity
  8
1
390
0
  6
Continuous
 62
   172
100
AcDbVertex
100
AcDb3dPolylineVertex
 10
108.162033
 20
-62.474972
 30
0.0
 70
    32
  0
VERTEX
  5
B9
100
AcDbEntity
  8
1
390
0
  6
Continuous
 62
   172
100
AcDbVertex
100
AcDb3dPolylineVertex
 10
108.081806
 20
-62.711764
 30
0.0
 70
    32
  0
SEQEND
  5
BA
100
AcDbEntity
  8
1
390
0
  6
Continuous
 62
   172
  0
POLYLINE
  5
BB
100
AcDbEntity
  8
1
390
0
  6
Continuous
 62
   172
100
AcDb3dPolyline
 66
     1
 10
0.0
 20
0.0
 30
0.0
 70
     8
210
-1.0
220
0.0
230
0.0
  0
VERTEX
  5
BC
100
AcDbEntity
  8
1
390
0
  6
Continuous
 62
   172
100
AcDbVertex
100
AcDb3dPolylineVertex
 10
70.0
 20
-79.104152
 30
38.77875
 70
    32
  0
VERTEX
  5
BD
100
AcDbEntity
  8
1
390
0
  6
Continuous
 62
   172
100
AcDbVertex
100
AcDb3dPolylineVertex
 10
70.0
 20
-79.028093
 30
38.868791
 70
    32
  0
VERTEX
  5
BE
100
AcDbEntity
  8
1
390
0
  6
Continuous
 62
   172
100
AcDbVertex
100
AcDb3dPolylineVertex
 10
70.0
 20
-78.948774
 30
38.956184
 70
    32
  0
VERTEX
  5
BF
100
AcDbEntity
  8
1
390
0
  6
Continuous
 62
   172
100
AcDbVertex
100
AcDb3dPolylineVertex
 10
70.0
 20
-78.866293
 30
39.040821
 70
    32
  0
VERTEX
  5
C0
100
AcDbEntity
  8
1
390
0
  6
Continuous
 62
   172
100
AcDbVertex
100
AcDb3dPolylineVertex
 10
70.0
 20
-78.780753
 30
39.122595
 70
    32
  0
VERTEX
  5
C1
100
AcDbEntity
  8
1
390
0
  6
Continuous
 62
   172
100
AcDbVertex
100
AcDb3dPolylineVertex
 10
70.0
 20
-78.692263
 30
39.201405
 70
    32
  0
VERTEX
  5
C2
100
AcDbEntity
  8
1
390
0
  6
Continuous
 62
   172
100
AcDbVertex
100
AcDb3dPolylineVertex
 10
70.0
 20
-78.600932
 30
39.277151
 70
    32
  0
VERTEX
  5
C3
100
AcDbEntity
  8
1
390
0
  6
Continuous
 62
   172
100
AcDbVertex
100
AcDb3dPolylineVertex
 10
70.0
 20
-78.506876
 30
39.349738
 70
    32
  0
VERTEX
  5
C4
100
AcDbEntity
  8
1
390
0
  6
Continuous
 62
   172
100
AcDbVertex
100
AcDb3dPolylineVertex
 10
70.0
 20
-78.410211
 30
39.419077
 70
    32
  0
VERTEX
  5
C5
100
AcDbEntity
  8
1
390
0
  6
Continuous
 62
   172
100
AcDbVertex
100
AcDb3dPolylineVertex
 10
70.0
 20
-78.311059
 30
39.485079
 70
    32
  0
VERTEX
  5
C6
100
AcDbEntity
  8
1
390
0
  6
Continuous
 62
   172
100
AcDbVertex
100
AcDb3dPolylineVertex
 10
70.0
 20
-78.209544
 30
39.547662
 70
    32
  0
VERTEX
  5
C7
100
AcDbEntity
  8
1
390
0
  6
Continuous
 62
   172
100
AcDbVertex
100
AcDb3dPolylineVertex
 10
70.0
 20
-78.105794
 30
39.606749
 70
    32
  0
VERTEX
  5
C8
100
AcDbEntity
  8
1
390
0
  6
Continuous
 62
   172
100
AcDbVertex
100
AcDb3dPolylineVertex
 10
70.0
 20
-77.999937
 30
39.662265
 70
    32
  0
VERTEX
  5
C9
100
AcDbEntity
  8
1
390
0
  6
Continuous
 62
   172
100
AcDbVertex
100
AcDb3dPolylineVertex
 10
70.0
 20
-77.892106
 30
39.71414
 70
    32
  0
VERTEX
  5
CA
100
AcDbEntity
  8
1
390
0
  6
Continuous
 62
   172
100
AcDbVertex
100
AcDb3dPolylineVertex
 10
70.0
 20
-77.782437
 30
39.762309
 70
    32
  0
VERTEX
  5
CB
100
AcDbEntity
  8
1
390
0
  6
Continuous
 62
   172
100
AcDbVertex
100
AcDb3dPolylineVertex
 10
70.0
 20
-77.671067
 30
39.806713
 70
    32
  0
VERTEX
  5
CC
100
AcDbEntity
  8
1
390
0
  6
Continuous
 62
   172
100
AcDbVertex
100
AcDb3dPolylineVertex
 10
70.0
 20
-77.558135
 30
39.847296
 70
    32
  0
VERTEX
  5
CD
100
AcDbEntity
  8
1
390
0
  6
Continuous
 62
   172
100
AcDbVertex
100
AcDb3dPolylineVertex
 10
70.0
 20
-77.443783
 30
39.884006
 70
    32
  0
VERTEX
  5
CE
100
AcDbEntity
  8
1
390
0
  6
Continuous
 62
   172
100
AcDbVertex
100
AcDb3dPolylineVertex
 10
70.0
 20
-77.328153
 30
39.916798
 70
    32
  0
VERTEX
  5
CF
100
AcDbEntity
  8
1
390
0
  6
Continuous
 62
   172
100
AcDbVertex
100
AcDb3dPolylineVertex
 10
70.0
 20
-77.211391
 30
39.945632
 70
    32
  0
VERTEX
  5
D0
100
AcDbEntity
  8
1
390
0
  6
Continuous
 62
   172
100
AcDbVertex
100
AcDb3dPolylineVertex
 10
70.0
 20
-77.093642
 30
39.970469
 70
    32
  0
VERTEX
  5
D1
100
AcDbEntity
  8
1
390
0
  6
Continuous
 62
   172
100
AcDbVertex
100
AcDb3dPolylineVertex
 10
70.0
 20
-76.975055
 30
39.991281
 70
    32
  0
VERTEX
  5
D2
100
AcDbEntity
  8
1
390
0
  6
Continuous
 62
   172
100
AcDbVertex
100
AcDb3dPolylineVertex
 10
70.0
 20
-76.855777
 30
40.00804
 70
    32
  0
VERTEX
  5
D3
100
AcDbEntity
  8
1
390
0
  6
Continuous
 62
   172
100
AcDbVertex
100
AcDb3dPolylineVertex
 10
70.0
 20
-76.735958
 30
40.020726
 70
    32
  0
VERTEX
  5
D4
100
AcDbEntity
  8
1
390
0
  6
Continuous
 62
   172
100
AcDbVertex
100
AcDb3dPolylineVertex
 10
70.0
 20
-76.615748
 30
40.029322
 70
    32
  0
VERTEX
  5
D5
100
AcDbEntity
  8
1
390
0
  6
Continuous
 62
   172
100
AcDbVertex
100
AcDb3dPolylineVertex
 10
70.0
 20
-76.495297
 30
40.033818
 70
    32
  0
VERTEX
  5
D6
100
AcDbEntity
  8
1
390
0
  6
Continuous
 62
   172
100
AcDbVertex
100
AcDb3dPolylineVertex
 10
70.0
 20
-76.374757
 30
40.034209
 70
    32
  0
VERTEX
  5
D7
100
AcDbEntity
  8
1
390
0
  6
Continuous
 62
   172
100
AcDbVertex
100
AcDb3dPolylineVertex
 10
70.0
 20
-76.254278
 30
40.030493
 70
    32
  0
VERTEX
  5
D8
100
AcDbEntity
  8
1
390
0
  6
Continuous
 62
   172
100
AcDbVertex
100
AcDb3dPolylineVertex
 10
70.0
 20
-76.13401
 30
40.022676
 70
    32
  0
VERTEX
  5
D9
100
AcDbEntity
  8
1
390
0
  6
Continuous
 62
   172
100
AcDbVertex
100
AcDb3dPolylineVertex
 10
70.0
 20
-76.014105
 30
40.010768
 70
    32
  0
VERTEX
  5
DA
100
AcDbEntity
  8
1
390
0
  6
Continuous
 62
   172
100
AcDbVertex
100
AcDb3dPolylineVertex
 10
70.0
 20
-75.894713
 30
39.994782
 70
    32
  0
VERTEX
  5
DB
100
AcDbEntity
  8
1
390
0
  6
Continuous
 62
   172
100
AcDbVertex
100
AcDb3dPolylineVertex
 10
70.0
 20
-75.775983
 30
39.97474
 70
    32
  0
VERTEX
  5
DC
100
AcDbEntity
  8
1
390
0
  6
Continuous
 62
   172
100
AcDbVertex
100
AcDb3dPolylineVertex
 10
70.0
 20
-75.658063
 30
39.950666
 70
    32
  0
VERTEX
  5
DD
100
AcDbEntity
  8
1
390
0
  6
Continuous
 62
   172
100
AcDbVertex
100
AcDb3dPolylineVertex
 10
70.0
 20
-75.541102
 30
39.92259
 70
    32
  0
VERTEX
  5
DE
100
AcDbEntity
  8
1
390
0
  6
Continuous
 62
   172
100
AcDbVertex
100
AcDb3dPolylineVertex
 10
70.0
 20
-75.425246
 30
39.890548
 70
    32
  0
VERTEX
  5
DF
100
AcDbEntity
  8
1
390
0
  6
Continuous
 62
   172
100
AcDbVertex
100
AcDb3dPolylineVertex
 10
70.0
 20
-75.310639
 30
39.85458
 70
    32
  0
VERTEX
  5
E0
100
AcDbEntity
  8
1
390
0
  6
Continuous
 62
   172
100
AcDbVertex
100
AcDb3dPolylineVertex
 10
70.0
 20
-75.197426
 30
39.81473
 70
    32
  0
VERTEX
  5
E1
100
AcDbEntity
  8
1
390
0
  6
Continuous
 62
   172
100
AcDbVertex
100
AcDb3dPolylineVertex
 10
70.0
 20
-75.085748
 30
39.771049
 70
    32
  0
VERTEX
  5
E2
100
AcDbEntity
  8
1
390
0
  6
Continuous
 62
   172
100
AcDbVertex
100
AcDb3dPolylineVertex
 10
70.0
 20
-74.975745
 30
39.723592
 70
    32
  0
VERTEX
  5
E3
100
AcDbEntity
  8
1
390
0
  6
Continuous
 62
   172
100
AcDbVertex
100
AcDb3dPolylineVertex
 10
70.0
 20
-74.867554
 30
39.672417
 70
    32
  0
VERTEX
  5
E4
100
AcDbEntity
  8
1
390
0
  6
Continuous
 62
   172
100
AcDbVertex
100
AcDb3dPolylineVertex
 10
70.0
 20
-74.761311
 30
39.617589
 70
    32
  0
VERTEX
  5
E5
100
AcDbEntity
  8
1
390
0
  6
Continuous
 62
   172
100
AcDbVertex
100
AcDb3dPolylineVertex
 10
70.0
 20
-74.657149
 30
39.559176
 70
    32
  0
VERTEX
  5
E6
100
AcDbEntity
  8
1
390
0
  6
Continuous
 62
   172
100
AcDbVertex
100
AcDb3dPolylineVertex
 10
70.0
 20
-74.555199
 30
39.497252
 70
    32
  0
VERTEX
  5
E7
100
AcDbEntity
  8
1
390
0
  6
Continuous
 62
   172
100
AcDbVertex
100
AcDb3dPolylineVertex
 10
70.0
 20
-74.455588
 30
39.431893
 70
    32
  0
VERTEX
  5
E8
100
AcDbEntity
  8
1
390
0
  6
Continuous
 62
   172
100
AcDbVertex
100
AcDb3dPolylineVertex
 10
70.0
 20
-74.358441
 30
39.363183
 70
    32
  0
VERTEX
  5
E9
100
AcDbEntity
  8
1
390
0
  6
Continuous
 62
   172
100
AcDbVertex
100
AcDb3dPolylineVertex
 10
70.0
 20
-74.263879
 30
39.291207
 70
    32
  0
VERTEX
  5
EA
100
AcDbEntity
  8
1
390
0
  6
Continuous
 62
   172
100
AcDbVertex
100
AcDb3dPolylineVertex
 10
70.0
 20
-74.172021
 30
39.216055
 70
    32
  0
VERTEX
  5
EB
100
AcDbEntity
  8
1
390
0
  6
Continuous
 62
   172
100
AcDbVertex
100
AcDb3dPolylineVertex
 10
70.0
 20
-74.082981
 30
39.137821
 70
    32
  0
VERTEX
  5
EC
100
AcDbEntity
  8
1
390
0
  6
Continuous
 62
   172
100
AcDbVertex
100
AcDb3dPolylineVertex
 10
70.0
 20
-73.996872
 30
39.056603
 70
    32
  0
VERTEX
  5
ED
100
AcDbEntity
  8
1
390
0
  6
Continuous
 62
   172
100
AcDbVertex
100
AcDb3dPolylineVertex
 10
70.0
 20
-73.913801
 30
38.972502
 70
    32
  0
SEQEND
  5
EE
100
AcDbEntity
  8
1
390
0
  6
Continuous
 62
   172
  0
POLYLINE
  5
EF
100
AcDbEntity
  8
1
390
0
  6
Continuous
 62
   172
100
AcDb3dPolyline
 66
     1
 10
0.0
 20
0.0
 30
0.0
 70
     8
210
-1.0
220
0.0
230
0.0
  0
VERTEX
  5
F0
100
AcDbEntity
  8
1
390
0
  6
Continuous
 62
   172
100
AcDbVertex
100
AcDb3dPolylineVertex
 10
70.0
 20
-58.501872
 30
38.885625
 70
    32
  0
VERTEX
  5
F1
100
AcDbEntity
  8
1
390
0
  6
Continuous
 62
   172
100
AcDbVertex
100
AcDb3dPolylineVertex
 10
70.0
 20
-58.421943
 30
38.972502
 70
    32
  0
VERTEX
  5
F2
100
AcDbEntity
  8
1
390
0
  6
Continuous
 62
   172
100
AcDbVertex
100
AcDb3dPolylineVertex
 10
70.0
 20
-58.338872
 30
39.056603
 70
    32
  0
VERTEX
  5
F3
100
AcDbEntity
  8
1
390
0
  6
Continuous
 62
   172
100
AcDbVertex
100
AcDb3dPolylineVertex
 10
70.0
 20
-58.252763
 30
39.137821
 70
    32
  0
VERTEX
  5
F4
100
AcDbEntity
  8
1
390
0
  6
Continuous
 62
   172
100
AcDbVertex
100
AcDb3dPolylineVertex
 10
70.0
 20
-58.163724
 30
39.216055
 70
    32
  0
VERTEX
  5
F5
100
AcDbEntity
  8
1
390
0
  6
Continuous
 62
   172
100
AcDbVertex
100
AcDb3dPolylineVertex
 10
70.0
 20
-58.071866
 30
39.291207
 70
    32
  0
VERTEX
  5
F6
100
AcDbEntity
  8
1
390
0
  6
Continuous
 62
   172
100
AcDbVertex
100
AcDb3dPolylineVertex
 10
70.0
 20
-57.977304
 30
39.363183
 70
    32
  0
VERTEX
  5
F7
100
AcDbEntity
  8
1
390
0
  6
Continuous
 62
   172
100
AcDbVertex
100
AcDb3dPolylineVertex
 10
70.0
 20
-57.880157
 30
39.431893
 70
    32
  0
VERTEX
  5
F8
100
AcDbEntity
  8
1
390
0
  6
Continuous
 62
   172
100
AcDbVertex
100
AcDb3dPolylineVertex
 10
70.0
 20
-57.780545
 30
39.497252
 70
    32
  0
VERTEX
  5
F9
100
AcDbEntity
  8
1
390
0
  6
Continuous
 62
   172
100
AcDbVertex
100
AcDb3dPolylineVertex
 10
70.0
 20
-57.678595
 30
39.559176
 70
    32
  0
VERTEX
  5
FA
100
AcDbEntity
  8
1
390
0
  6
Continuous
 62
   172
100
AcDbVertex
100
AcDb3dPolylineVertex
 10
70.0
 20
-57.574434
 30
39.617589
 70
    32
  0
VERTEX
  5
FB
100
AcDbEntity
  8
1
390
0
  6
Continuous
 62
   172
100
AcDbVertex
100
AcDb3dPolylineVertex
 10
70.0
 20
-57.468191
 30
39.672417
 70
    32
  0
VERTEX
  5
FC
100
AcDbEntity
  8
1
390
0
  6
Continuous
 62
   172
100
AcDbVertex
100
AcDb3dPolylineVertex
 10
70.0
 20
-57.36
 30
39.723592
 70
    32
  0
VERTEX
  5
FD
100
AcDbEntity
  8
1
390
0
  6
Continuous
 62
   172
100
AcDbVertex
100
AcDb3dPolylineVertex
 10
70.0
 20
-57.249997
 30
39.771049
 70
    32
  0
VERTEX
  5
FE
100
AcDbEntity
  8
1
390
0
  6
Continuous
 62
   172
100
AcDbVertex
100
AcDb3dPolylineVertex
 10
70.0
 20
-57.138319
 30
39.81473
 70
    32
  0
VERTEX
  5
FF
100
AcDbEntity
  8
1
390
0
  6
Continuous
 62
   172
100
AcDbVertex
100
AcDb3dPolylineVertex
 10
70.0
 20
-57.025106
 30
39.85458
 70
    32
  0
VERTEX
  5
100
100
AcDbEntity
  8
1
390
0
  6
Continuous
 62
   172
100
AcDbVertex
100
AcDb3dPolylineVertex
 10
70.0
 20
-56.910499
 30
39.890548
 70
    32
  0
VERTEX
  5
101
100
AcDbEntity
  8
1
390
0
  6
Continuous
 62
   172
100
AcDbVertex
100
AcDb3dPolylineVertex
 10
70.0
 20
-56.794643
 30
39.92259
 70
    32
  0
VERTEX
  5
102
100
AcDbEntity
  8
1
390
0
  6
Continuous
 62
   172
100
AcDbVertex
100
AcDb3dPolylineVertex
 10
70.0
 20
-56.677682
 30
39.950666
 70
    32
  0
VERTEX
  5
103
100
AcDbEntity
  8
1
390
0
  6
Continuous
 62
   172
100
AcDbVertex
100
AcDb3dPolylineVertex
 10
70.0
 20
-56.559762
 30
39.97474
 70
    32
  0
VERTEX
  5
104
100
AcDbEntity
  8
1
390
0
  6
Continuous
 62
   172
100
AcDbVertex
100
AcDb3dPolylineVertex
 10
70.0
 20
-56.441032
 30
39.994782
 70
    32
  0
VERTEX
  5
105
100
AcDbEntity
  8
1
390
0
  6
Continuous
 62
   172
100
AcDbVertex
100
AcDb3dPolylineVertex
 10
70.0
 20
-56.32164
 30
40.010768
 70
    32
  0
VERTEX
  5
106
100
AcDbEntity
  8
1
390
0
  6
Continuous
 62
   172
100
AcDbVertex
100
AcDb3dPolylineVertex
 10
70.0
 20
-56.201735
 30
40.022676
 70
    32
  0
VERTEX
  5
107
100
AcDbEntity
  8
1
390
0
  6
Continuous
 62
   172
100
AcDbVertex
100
AcDb3dPolylineVertex
 10
70.0
 20
-56.081467
 30
40.030493
 70
    32
  0
VERTEX
  5
108
100
AcDbEntity
  8
1
390
0
  6
Continuous
 62
   172
100
AcDbVertex
100
AcDb3dPolylineVertex
 10
70.0
 20
-55.960988
 30
40.034209
 70
    32
  0
VERTEX
  5
109
100
AcDbEntity
  8
1
390
0
  6
Continuous
 62
   172
100
AcDbVertex
100
AcDb3dPolylineVertex
 10
70.0
 20
-55.840447
 30
40.033818
 70
    32
  0
VERTEX
  5
10A
100
AcDbEntity
  8
1
390
0
  6
Continuous
 62
   172
100
AcDbVertex
100
AcDb3dPolylineVertex
 10
70.0
 20
-55.719997
 30
40.029322
 70
    32
  0
VERTEX
  5
10B
100
AcDbEntity
  8
1
390
0
  6
Continuous
 62
   172
100
AcDbVertex
100
AcDb3dPolylineVertex
 10
70.0
 20
-55.599787
 30
40.020726
 70
    32
  0
VERTEX
  5
10C
100
AcDbEntity
  8
1
390
0
  6
Continuous
 62
   172
100
AcDbVertex
100
AcDb3dPolylineVertex
 10
70.0
 20
-55.479968
 30
40.00804
 70
    32
  0
VERTEX
  5
10D
100
AcDbEntity
  8
1
390
0
  6
Continuous
 62
   172
100
AcDbVertex
100
AcDb3dPolylineVertex
 10
70.0
 20
-55.36069
 30
39.991281
 70
    32
  0
VERTEX
  5
10E
100
AcDbEntity
  8
1
390
0
  6
Continuous
 62
   172
100
AcDbVertex
100
AcDb3dPolylineVertex
 10
70.0
 20
-55.242103
 30
39.970469
 70
    32
  0
VERTEX
  5
10F
100
AcDbEntity
  8
1
390
0
  6
Continuous
 62
   172
100
AcDbVertex
100
AcDb3dPolylineVertex
 10
70.0
 20
-55.124354
 30
39.945632
 70
    32
  0
VERTEX
  5
110
100
AcDbEntity
  8
1
390
0
  6
Continuous
 62
   172
100
AcDbVertex
100
AcDb3dPolylineVertex
 10
70.0
 20
-55.007592
 30
39.916798
 70
    32
  0
VERTEX
  5
111
100
AcDbEntity
  8
1
390
0
  6
Continuous
 62
   172
100
AcDbVertex
100
AcDb3dPolylineVertex
 10
70.0
 20
-54.891962
 30
39.884006
 70
    32
  0
VERTEX
  5
112
100
AcDbEntity
  8
1
390
0
  6
Continuous
 62
   172
100
AcDbVertex
100
AcDb3dPolylineVertex
 10
70.0
 20
-54.77761
 30
39.847296
 70
    32
  0
VERTEX
  5
113
100
AcDbEntity
  8
1
390
0
  6
Continuous
 62
   172
100
AcDbVertex
100
AcDb3dPolylineVertex
 10
70.0
 20
-54.664678
 30
39.806713
 70
    32
  0
VERTEX
  5
114
100
AcDbEntity
  8
1
390
0
  6
Continuous
 62
   172
100
AcDbVertex
100
AcDb3dPolylineVertex
 10
70.0
 20
-54.553308
 30
39.762309
 70
    32
  0
VERTEX
  5
115
100
AcDbEntity
  8
1
390
0
  6
Continuous
 62
   172
100
AcDbVertex
100
AcDb3dPolylineVertex
 10
70.0
 20
-54.443639
 30
39.71414
 70
    32
  0
VERTEX
  5
116
100
AcDbEntity
  8
1
390
0
  6
Continuous
 62
   172
100
AcDbVertex
100
AcDb3dPolylineVertex
 10
70.0
 20
-54.335808
 30
39.662265
 70
    32
  0
VERTEX
  5
117
100
AcDbEntity
  8
1
390
0
  6
Continuous
 62
   172
100
AcDbVertex
100
AcDb3dPolylineVertex
 10
70.0
 20
-54.229951
 30
39.606749
 70
    32
  0
VERTEX
  5
118
100
AcDbEntity
  8
1
390
0
  6
Continuous
 62
   172
100
AcDbVertex
100
AcDb3dPolylineVertex
 10
70.0
 20
-54.1262
 30
39.547662
 70
    32
  0
VERTEX
  5
119
100
AcDbEntity
  8
1
390
0
  6
Continuous
 62
   172
100
AcDbVertex
100
AcDb3dPolylineVertex
 10
70.0
 20
-54.024685
 30
39.485079
 70
    32
  0
VERTEX
  5
11A
100
AcDbEntity
  8
1
390
0
  6
Continuous
 62
   172
100
AcDbVertex
100
AcDb3dPolylineVertex
 10
70.0
 20
-53.925534
 30
39.419077
 70
    32
  0
VERTEX
  5
11B
100
AcDbEntity
  8
1
390
0
  6
Continuous
 62
   172
100
AcDbVertex
100
AcDb3dPolylineVertex
 10
70.0
 20
-53.828869
 30
39.349738
 70
    32
  0
VERTEX
  5
11C
100
AcDbEntity
  8
1
390
0
  6
Continuous
 62
   172
100
AcDbVertex
100
AcDb3dPolylineVertex
 10
70.0
 20
-53.734812
 30
39.277151
 70
    32
  0
VERTEX
  5
11D
100
AcDbEntity
  8
1
390
0
  6
Continuous
 62
   172
100
AcDbVertex
100
AcDb3dPolylineVertex
 10
70.0
 20
-53.643482
 30
39.201405
 70
    32
  0
VERTEX
  5
11E
100
AcDbEntity
  8
1
390
0
  6
Continuous
 62
   172
100
AcDbVertex
100
AcDb3dPolylineVertex
 10
70.0
 20
-53.554991
 30
39.122595
 70
    32
  0
VERTEX
  5
11F
100
AcDbEntity
  8
1
390
0
  6
Continuous
 62
   172
100
AcDbVertex
100
AcDb3dPolylineVertex
 10
70.0
 20
-53.469452
 30
39.040821
 70
    32
  0
VERTEX
  5
120
100
AcDbEntity
  8
1
390
0
  6
Continuous
 62
   172
100
AcDbVertex
100
AcDb3dPolylineVertex
 10
70.0
 20
-53.386971
 30
38.956184
 70
    32
  0
VERTEX
  5
121
100
AcDbEntity
  8
1
390
0
  6
Continuous
 62
   172
100
AcDbVertex
100
AcDb3dPolylineVertex
 10
70.0
 20
-53.307651
 30
38.868791
 70
    32
  0
SEQEND
  5
122
100
AcDbEntity
  8
1
390
0
  6
Continuous
 62
   172
  0
POLYLINE
  5
123
100
AcDbEntity
  8
1
390
0
  6
Continuous
 62
   172
100
AcDb3dPolyline
 66
     1
 10
0.0
 20
0.0
 30
0.0
 70
     8
210
0.0
220
0.0
230
-1.0
  0
VERTEX
  5
124
100
AcDbEntity
  8
1
390
0
  6
Continuous
 62
   172
100
AcDbVertex
100
AcDb3dPolylineVertex
 10
-9.910572
 20
-38.197872
 30
0.0
 70
    32
  0
VERTEX
  5
125
100
AcDbEntity
  8
1
390
0
  6
Continuous
 62
   172
100
AcDbVertex
100
AcDb3dPolylineVertex
 10
-9.889847
 20
-37.279108
 30
0.0
 70
    32
  0
VERTEX
  5
126
100
AcDbEntity
  8
1
390
0
  6
Continuous
 62
   172
100
AcDbVertex
100
AcDb3dPolylineVertex
 10
-9.827694
 20
-36.36125
 30
0.0
 70
    32
  0
VERTEX
  5
127
100
AcDbEntity
  8
1
390
0
  6
Continuous
 62
   172
100
AcDbVertex
100
AcDb3dPolylineVertex
 10
-9.724174
 20
-35.445204
 30
0.0
 70
    32
  0
VERTEX
  5
128
100
AcDbEntity
  8
1
390
0
  6
Continuous
 62
   172
100
AcDbVertex
100
AcDb3dPolylineVertex
 10
-9.579389
 20
-34.531875
 30
0.0
 70
    32
  0
VERTEX
  5
129
100
AcDbEntity
  8
1
390
0
  6
Continuous
 62
   172
100
AcDbVertex
100
AcDb3dPolylineVertex
 10
-9.393482
 20
-33.622164
 30
0.0
 70
    32
  0
VERTEX
  5
12A
100
AcDbEntity
  8
1
390
0
  6
Continuous
 62
   172
100
AcDbVertex
100
AcDb3dPolylineVertex
 10
-9.166636
 20
-32.716969
 30
0.0
 70
    32
  0
VERTEX
  5
12B
100
AcDbEntity
  8
1
390
0
  6
Continuous
 62
   172
100
AcDbVertex
100
AcDb3dPolylineVertex
 10
-8.899076
 20
-31.817183
 30
0.0
 70
    32
  0
VERTEX
  5
12C
100
AcDbEntity
  8
1
390
0
  6
Continuous
 62
   172
100
AcDbVertex
100
AcDb3dPolylineVertex
 10
-8.591064
 20
-30.923693
 30
0.0
 70
    32
  0
VERTEX
  5
12D
100
AcDbEntity
  8
1
390
0
  6
Continuous
 62
   172
100
AcDbVertex
100
AcDb3dPolylineVertex
 10
-8.242906
 20
-30.037383
 30
0.0
 70
    32
  0
VERTEX
  5
12E
100
AcDbEntity
  8
1
390
0
  6
Continuous
 62
   172
100
AcDbVertex
100
AcDb3dPolylineVertex
 10
-7.854945
 20
-29.159125
 30
0.0
 70
    32
  0
VERTEX
  5
12F
100
AcDbEntity
  8
1
390
0
  6
Continuous
 62
   172
100
AcDbVertex
100
AcDb3dPolylineVertex
 10
-7.427564
 20
-28.289788
 30
0.0
 70
    32
  0
VERTEX
  5
130
100
AcDbEntity
  8
1
390
0
  6
Continuous
 62
   172
100
AcDbVertex
100
AcDb3dPolylineVertex
 10
-6.961184
 20
-27.430229
 30
0.0
 70
    32
  0
VERTEX
  5
131
100
AcDbEntity
  8
1
390
0
  6
Continuous
 62
   172
100
AcDbVertex
100
AcDb3dPolylineVertex
 10
-6.456266
 20
-26.581297
 30
0.0
 70
    32
  0
VERTEX
  5
132
100
AcDbEntity
  8
1
390
0
  6
Continuous
 62
   172
100
AcDbVertex
100
AcDb3dPolylineVertex
 10
-5.913308
 20
-25.743828
 30
0.0
 70
    32
  0
VERTEX
  5
133
100
AcDbEntity
  8
1
390
0
  6
Continuous
 62
   172
100
AcDbVertex
100
AcDb3dPolylineVertex
 10
-5.332846
 20
-24.91865
 30
0.0
 70
    32
  0
VERTEX
  5
134
100
AcDbEntity
  8
1
390
0
  6
Continuous
 62
   172
100
AcDbVertex
100
AcDb3dPolylineVertex
 10
-4.715452
 20
-24.106577
 30
0.0
 70
    32
  0
VERTEX
  5
135
100
AcDbEntity
  8
1
390
0
  6
Continuous
 62
   172
100
AcDbVertex
100
AcDb3dPolylineVertex
 10
-4.061737
 20
-23.308411
 30
0.0
 70
    32
  0
VERTEX
  5
136
100
AcDbEntity
  8
1
390
0
  6
Continuous
 62
   172
100
AcDbVertex
100
AcDb3dPolylineVertex
 10
-3.372344
 20
-22.524939
 30
0.0
 70
    32
  0
VERTEX
  5
137
100
AcDbEntity
  8
1
390
0
  6
Continuous
 62
   172
100
AcDbVertex
100
AcDb3dPolylineVertex
 10
-2.647956
 20
-21.756934
 30
0.0
 70
    32
  0
VERTEX
  5
138
100
AcDbEntity
  8
1
390
0
  6
Continuous
 62
   172
100
AcDbVertex
100
AcDb3dPolylineVertex
 10
-1.889285
 20
-21.005154
 30
0.0
 70
    32
  0
VERTEX
  5
139
100
AcDbEntity
  8
1
390
0
  6
Continuous
 62
   172
100
AcDbVertex
100
AcDb3dPolylineVertex
 10
-1.097082
 20
-20.270341
 30
0.0
 70
    32
  0
VERTEX
  5
13A
100
AcDbEntity
  8
1
390
0
  6
Continuous
 62
   172
100
AcDbVertex
100
AcDb3dPolylineVertex
 10
-0.272128
 20
-19.553221
 30
0.0
 70
    32
  0
VERTEX
  5
13B
100
AcDbEntity
  8
1
390
0
  6
Continuous
 62
   172
100
AcDbVertex
100
AcDb3dPolylineVertex
 10
0.584764
 20
-18.8545
 30
0.0
 70
    32
  0
VERTEX
  5
13C
100
AcDbEntity
  8
1
390
0
  6
Continuous
 62
   172
100
AcDbVertex
100
AcDb3dPolylineVertex
 10
1.472746
 20
-18.17487
 30
0.0
 70
    32
  0
VERTEX
  5
13D
100
AcDbEntity
  8
1
390
0
  6
Continuous
 62
   172
100
AcDbVertex
100
AcDb3dPolylineVertex
 10
2.390944
 20
-17.514999
 30
0.0
 70
    32
  0
VERTEX
  5
13E
100
AcDbEntity
  8
1
390
0
  6
Continuous
 62
   172
100
AcDbVertex
100
AcDb3dPolylineVertex
 10
3.33845
 20
-16.87554
 30
0.0
 70
    32
  0
VERTEX
  5
13F
100
AcDbEntity
  8
1
390
0
  6
Continuous
 62
   172
100
AcDbVertex
100
AcDb3dPolylineVertex
 10
4.31433
 20
-16.257124
 30
0.0
 70
    32
  0
VERTEX
  5
140
100
AcDbEntity
  8
1
390
0
  6
Continuous
 62
   172
100
AcDbVertex
100
AcDb3dPolylineVertex
 10
5.317621
 20
-15.66036
 30
0.0
 70
    32
  0
VERTEX
  5
141
100
AcDbEntity
  8
1
390
0
  6
Continuous
 62
   172
100
AcDbVertex
100
AcDb3dPolylineVertex
 10
6.347332
 20
-15.085838
 30
0.0
 70
    32
  0
VERTEX
  5
142
100
AcDbEntity
  8
1
390
0
  6
Continuous
 62
   172
100
AcDbVertex
100
AcDb3dPolylineVertex
 10
7.402448
 20
-14.534125
 30
0.0
 70
    32
  0
VERTEX
  5
143
100
AcDbEntity
  8
1
390
0
  6
Continuous
 62
   172
100
AcDbVertex
100
AcDb3dPolylineVertex
 10
8.481927
 20
-14.005766
 30
0.0
 70
    32
  0
VERTEX
  5
144
100
AcDbEntity
  8
1
390
0
  6
Continuous
 62
   172
100
AcDbVertex
100
AcDb3dPolylineVertex
 10
9.584703
 20
-13.501281
 30
0.0
 70
    32
  0
VERTEX
  5
145
100
AcDbEntity
  8
1
390
0
  6
Continuous
 62
   172
100
AcDbVertex
100
AcDb3dPolylineVertex
 10
10.709689
 20
-13.021168
 30
0.0
 70
    32
  0
VERTEX
  5
146
100
AcDbEntity
  8
1
390
0
  6
Continuous
 62
   172
100
AcDbVertex
100
AcDb3dPolylineVertex
 10
11.855774
 20
-12.565902
 30
0.0
 70
    32
  0
VERTEX
  5
147
100
AcDbEntity
  8
1
390
0
  6
Continuous
 62
   172
100
AcDbVertex
100
AcDb3dPolylineVertex
 10
13.021827
 20
-12.135932
 30
0.0
 70
    32
  0
VERTEX
  5
148
100
AcDbEntity
  8
1
390
0
  6
Continuous
 62
   172
100
AcDbVertex
100
AcDb3dPolylineVertex
 10
14.206698
 20
-11.731681
 30
0.0
 70
    32
  0
VERTEX
  5
149
100
AcDbEntity
  8
1
390
0
  6
Continuous
 62
   172
100
AcDbVertex
100
AcDb3dPolylineVertex
 10
15.409217
 20
-11.35355
 30
0.0
 70
    32
  0
VERTEX
  5
14A
100
AcDbEntity
  8
1
390
0
  6
Continuous
 62
   172
100
AcDbVertex
100
AcDb3dPolylineVertex
 10
16.628197
 20
-11.00191
 30
0.0
 70
    32
  0
VERTEX
  5
14B
100
AcDbEntity
  8
1
390
0
  6
Continuous
 62
   172
100
AcDbVertex
100
AcDb3dPolylineVertex
 10
17.862436
 20
-10.67711
 30
0.0
 70
    32
  0
VERTEX
  5
14C
100
AcDbEntity
  8
1
390
0
  6
Continuous
 62
   172
100
AcDbVertex
100
AcDb3dPolylineVertex
 10
19.110715
 20
-10.379469
 30
0.0
 70
    32
  0
VERTEX
  5
14D
100
AcDbEntity
  8
1
390
0
  6
Continuous
 62
   172
100
AcDbVertex
100
AcDb3dPolylineVertex
 10
20.371802
 20
-10.109282
 30
0.0
 70
    32
  0
VERTEX
  5
14E
100
AcDbEntity
  8
1
390
0
  6
Continuous
 62
   172
100
AcDbVertex
100
AcDb3dPolylineVertex
 10
21.644453
 20
-9.866815
 30
0.0
 70
    32
  0
VERTEX
  5
14F
100
AcDbEntity
  8
1
390
0
  6
Continuous
 62
   172
100
AcDbVertex
100
AcDb3dPolylineVertex
 10
22.927412
 20
-9.652307
 30
0.0
 70
    32
  0
VERTEX
  5
150
100
AcDbEntity
  8
1
390
0
  6
Continuous
 62
   172
100
AcDbVertex
100
AcDb3dPolylineVertex
 10
24.219413
 20
-9.46597
 30
0.0
 70
    32
  0
VERTEX
  5
151
100
AcDbEntity
  8
1
390
0
  6
Continuous
 62
   172
100
AcDbVertex
100
AcDb3dPolylineVertex
 10
25.519181
 20
-9.307988
 30
0.0
 70
    32
  0
VERTEX
  5
152
100
AcDbEntity
  8
1
390
0
  6
Continuous
 62
   172
100
AcDbVertex
100
AcDb3dPolylineVertex
 10
26.825433
 20
-9.178517
 30
0.0
 70
    32
  0
VERTEX
  5
153
100
AcDbEntity
  8
1
390
0
  6
Continuous
 62
   172
100
AcDbVertex
100
AcDb3dPolylineVertex
 10
28.136879
 20
-9.077685
 30
0.0
 70
    32
  0
VERTEX
  5
154
100
AcDbEntity
  8
1
390
0
  6
Continuous
 62
   172
100
AcDbVertex
100
AcDb3dPolylineVertex
 10
29.452227
 20
-9.005591
 30
0.0
 70
    32
  0
VERTEX
  5
155
100
AcDbEntity
  8
1
390
0
  6
Continuous
 62
   172
100
AcDbVertex
100
AcDb3dPolylineVertex
 10
30.770177
 20
-8.962305
 30
0.0
 70
    32
  0
SEQEND
  5
156
100
AcDbEntity
  8
1
390
0
  6
Continuous
 62
   172
  0
POLYLINE
  5
157
100
AcDbEntity
  8
1
390
0
  6
Continuous
 62
   172
100
AcDb3dPolyline
 66
     1
 10
0.0
 20
0.0
 30
0.0
 70
     8
210
0.0
220
0.0
230
-1.0
  0
VERTEX
  5
158
100
AcDbEntity
  8
1
390
0
  6
Continuous
 62
   172
100
AcDbVertex
100
AcDb3dPolylineVertex
 10
-0.30665
 20
-62.947872
 30
0.0
 70
    32
  0
VERTEX
  5
159
100
AcDbEntity
  8
1
390
0
  6
Continuous
 62
   172
100
AcDbVertex
100
AcDb3dPolylineVertex
 10
-0.666082
 20
-62.566753
 30
0.0
 70
    32
  0
VERTEX
  5
15A
100
AcDbEntity
  8
1
390
0
  6
Continuous
 62
   172
100
AcDbVertex
100
AcDb3dPolylineVertex
 10
-1.019889
 20
-62.179029
 30
0.0
 70
    32
  0
VERTEX
  5
15B
100
AcDbEntity
  8
1
390
0
  6
Continuous
 62
   172
100
AcDbVertex
100
AcDb3dPolylineVertex
 10
-1.367973
 20
-61.784804
 30
0.0
 70
    32
  0
VERTEX
  5
15C
100
AcDbEntity
  8
1
390
0
  6
Continuous
 62
   172
100
AcDbVertex
100
AcDb3dPolylineVertex
 10
-1.710241
 20
-61.384185
 30
0.0
 70
    32
  0
VERTEX
  5
15D
100
AcDbEntity
  8
1
390
0
  6
Continuous
 62
   172
100
AcDbVertex
100
AcDb3dPolylineVertex
 10
-2.0466
 20
-60.977282
 30
0.0
 70
    32
  0
VERTEX
  5
15E
100
AcDbEntity
  8
1
390
0
  6
Continuous
 62
   172
100
AcDbVertex
100
AcDb3dPolylineVertex
 10
-2.376959
 20
-60.564203
 30
0.0
 70
    32
  0
VERTEX
  5
15F
100
AcDbEntity
  8
1
390
0
  6
Continuous
 62
   172
100
AcDbVertex
100
AcDb3dPolylineVertex
 10
-2.701228
 20
-60.145062
 30
0.0
 70
    32
  0
VERTEX
  5
160
100
AcDbEntity
  8
1
390
0
  6
Continuous
 62
   172
100
AcDbVertex
100
AcDb3dPolylineVertex
 10
-3.019319
 20
-59.719972
 30
0.0
 70
    32
  0
VERTEX
  5
161
100
AcDbEntity
  8
1
390
0
  6
Continuous
 62
   172
100
AcDbVertex
100
AcDb3dPolylineVertex
 10
-3.331146
 20
-59.289048
 30
0.0
 70
    32
  0
VERTEX
  5
162
100
AcDbEntity
  8
1
390
0
  6
Continuous
 62
   172
100
AcDbVertex
100
AcDb3dPolylineVertex
 10
-3.636625
 20
-58.852407
 30
0.0
 70
    32
  0
VERTEX
  5
163
100
AcDbEntity
  8
1
390
0
  6
Continuous
 62
   172
100
AcDbVertex
100
AcDb3dPolylineVertex
 10
-3.935672
 20
-58.410167
 30
0.0
 70
    32
  0
VERTEX
  5
164
100
AcDbEntity
  8
1
390
0
  6
Continuous
 62
   172
100
AcDbVertex
100
AcDb3dPolylineVertex
 10
-4.228207
 20
-57.962448
 30
0.0
 70
    32
  0
VERTEX
  5
165
100
AcDbEntity
  8
1
390
0
  6
Continuous
 62
   172
100
AcDbVertex
100
AcDb3dPolylineVertex
 10
-4.51415
 20
-57.509372
 30
0.0
 70
    32
  0
VERTEX
  5
166
100
AcDbEntity
  8
1
390
0
  6
Continuous
 62
   172
100
AcDbVertex
100
AcDb3dPolylineVertex
 10
-4.793424
 20
-57.051061
 30
0.0
 70
    32
  0
VERTEX
  5
167
100
AcDbEntity
  8
1
390
0
  6
Continuous
 62
   172
100
AcDbVertex
100
AcDb3dPolylineVertex
 10
-5.065954
 20
-56.58764
 30
0.0
 70
    32
  0
VERTEX
  5
168
100
AcDbEntity
  8
1
390
0
  6
Continuous
 62
   172
100
AcDbVertex
100
AcDb3dPolylineVertex
 10
-5.331664
 20
-56.119234
 30
0.0
 70
    32
  0
VERTEX
  5
169
100
AcDbEntity
  8
1
390
0
  6
Continuous
 62
   172
100
AcDbVertex
100
AcDb3dPolylineVertex
 10
-5.590484
 20
-55.64597
 30
0.0
 70
    32
  0
VERTEX
  5
16A
100
AcDbEntity
  8
1
390
0
  6
Continuous
 62
   172
100
AcDbVertex
100
AcDb3dPolylineVertex
 10
-5.842343
 20
-55.167976
 30
0.0
 70
    32
  0
VERTEX
  5
16B
100
AcDbEntity
  8
1
390
0
  6
Continuous
 62
   172
100
AcDbVertex
100
AcDb3dPolylineVertex
 10
-6.087172
 20
-54.685383
 30
0.0
 70
    32
  0
VERTEX
  5
16C
100
AcDbEntity
  8
1
390
0
  6
Continuous
 62
   172
100
AcDbVertex
100
AcDb3dPolylineVertex
 10
-6.324906
 20
-54.19832
 30
0.0
 70
    32
  0
VERTEX
  5
16D
100
AcDbEntity
  8
1
390
0
  6
Continuous
 62
   172
100
AcDbVertex
100
AcDb3dPolylineVertex
 10
-6.55548
 20
-53.70692
 30
0.0
 70
    32
  0
VERTEX
  5
16E
100
AcDbEntity
  8
1
390
0
  6
Continuous
 62
   172
100
AcDbVertex
100
AcDb3dPolylineVertex
 10
-6.778832
 20
-53.211316
 30
0.0
 70
    32
  0
VERTEX
  5
16F
100
AcDbEntity
  8
1
390
0
  6
Continuous
 62
   172
100
AcDbVertex
100
AcDb3dPolylineVertex
 10
-6.9949
 20
-52.711643
 30
0.0
 70
    32
  0
VERTEX
  5
170
100
AcDbEntity
  8
1
390
0
  6
Continuous
 62
   172
100
AcDbVertex
100
AcDb3dPolylineVertex
 10
-7.203627
 20
-52.208035
 30
0.0
 70
    32
  0
VERTEX
  5
171
100
AcDbEntity
  8
1
390
0
  6
Continuous
 62
   172
100
AcDbVertex
100
AcDb3dPolylineVertex
 10
-7.404956
 20
-51.70063
 30
0.0
 70
    32
  0
VERTEX
  5
172
100
AcDbEntity
  8
1
390
0
  6
Continuous
 62
   172
100
AcDbVertex
100
AcDb3dPolylineVertex
 10
-7.598832
 20
-51.189564
 30
0.0
 70
    32
  0
VERTEX
  5
173
100
AcDbEntity
  8
1
390
0
  6
Continuous
 62
   172
100
AcDbVertex
100
AcDb3dPolylineVertex
 10
-7.785202
 20
-50.674977
 30
0.0
 70
    32
  0
VERTEX
  5
174
100
AcDbEntity
  8
1
390
0
  6
Continuous
 62
   172
100
AcDbVertex
100
AcDb3dPolylineVertex
 10
-7.964017
 20
-50.157008
 30
0.0
 70
    32
  0
VERTEX
  5
175
100
AcDbEntity
  8
1
390
0
  6
Continuous
 62
   172
100
AcDbVertex
100
AcDb3dPolylineVertex
 10
-8.135228
 20
-49.635797
 30
0.0
 70
    32
  0
VERTEX
  5
176
100
AcDbEntity
  8
1
390
0
  6
Continuous
 62
   172
100
AcDbVertex
100
AcDb3dPolylineVertex
 10
-8.298787
 20
-49.111486
 30
0.0
 70
    32
  0
VERTEX
  5
177
100
AcDbEntity
  8
1
390
0
  6
Continuous
 62
   172
100
AcDbVertex
100
AcDb3dPolylineVertex
 10
-8.454652
 20
-48.584216
 30
0.0
 70
    32
  0
VERTEX
  5
178
100
AcDbEntity
  8
1
390
0
  6
Continuous
 62
   172
100
AcDbVertex
100
AcDb3dPolylineVertex
 10
-8.602779
 20
-48.054131
 30
0.0
 70
    32
  0
VERTEX
  5
179
100
AcDbEntity
  8
1
390
0
  6
Continuous
 62
   172
100
AcDbVertex
100
AcDb3dPolylineVertex
 10
-8.743129
 20
-47.521375
 30
0.0
 70
    32
  0
VERTEX
  5
17A
100
AcDbEntity
  8
1
390
0
  6
Continuous
 62
   172
100
AcDbVertex
100
AcDb3dPolylineVertex
 10
-8.875664
 20
-46.986091
 30
0.0
 70
    32
  0
VERTEX
  5
17B
100
AcDbEntity
  8
1
390
0
  6
Continuous
 62
   172
100
AcDbVertex
100
AcDb3dPolylineVertex
 10
-9.000347
 20
-46.448425
 30
0.0
 70
    32
  0
VERTEX
  5
17C
100
AcDbEntity
  8
1
390
0
  6
Continuous
 62
   172
100
AcDbVertex
100
AcDb3dPolylineVertex
 10
-9.117145
 20
-45.908522
 30
0.0
 70
    32
  0
VERTEX
  5
17D
100
AcDbEntity
  8
1
390
0
  6
Continuous
 62
   172
100
AcDbVertex
100
AcDb3dPolylineVertex
 10
-9.226025
 20
-45.36653
 30
0.0
 70
    32
  0
VERTEX
  5
17E
100
AcDbEntity
  8
1
390
0
  6
Continuous
 62
   172
100
AcDbVertex
100
AcDb3dPolylineVertex
 10
-9.32696
 20
-44.822594
 30
0.0
 70
    32
  0
VERTEX
  5
17F
100
AcDbEntity
  8
1
390
0
  6
Continuous
 62
   172
100
AcDbVertex
100
AcDb3dPolylineVertex
 10
-9.419921
 20
-44.276862
 30
0.0
 70
    32
  0
VERTEX
  5
180
100
AcDbEntity
  8
1
390
0
  6
Continuous
 62
   172
100
AcDbVertex
100
AcDb3dPolylineVertex
 10
-9.504882
 20
-43.729483
 30
0.0
 70
    32
  0
VERTEX
  5
181
100
AcDbEntity
  8
1
390
0
  6
Continuous
 62
   172
100
AcDbVertex
100
AcDb3dPolylineVertex
 10
-9.581822
 20
-43.180604
 30
0.0
 70
    32
  0
VERTEX
  5
182
100
AcDbEntity
  8
1
390
0
  6
Continuous
 62
   172
100
AcDbVertex
100
AcDb3dPolylineVertex
 10
-9.650719
 20
-42.630375
 30
0.0
 70
    32
  0
VERTEX
  5
183
100
AcDbEntity
  8
1
390
0
  6
Continuous
 62
   172
100
AcDbVertex
100
AcDb3dPolylineVertex
 10
-9.711555
 20
-42.078944
 30
0.0
 70
    32
  0
VERTEX
  5
184
100
AcDbEntity
  8
1
390
0
  6
Continuous
 62
   172
100
AcDbVertex
100
AcDb3dPolylineVertex
 10
-9.764312
 20
-41.526461
 30
0.0
 70
    32
  0
VERTEX
  5
185
100
AcDbEntity
  8
1
390
0
  6
Continuous
 62
   172
100
AcDbVertex
100
AcDb3dPolylineVertex
 10
-9.808977
 20
-40.973076
 30
0.0
 70
    32
  0
VERTEX
  5
186
100
AcDbEntity
  8
1
390
0
  6
Continuous
 62
   172
100
AcDbVertex
100
AcDb3dPolylineVertex
 10
-9.845538
 20
-40.418938
 30
0.0
 70
    32
  0
VERTEX
  5
187
100
AcDbEntity
  8
1
390
0
  6
Continuous
 62
   172
100
AcDbVertex
100
AcDb3dPolylineVertex
 10
-9.873984
 20
-39.864199
 30
0.0
 70
    32
  0
VERTEX
  5
188
100
AcDbEntity
  8
1
390
0
  6
Continuous
 62
   172
100
AcDbVertex
100
AcDb3dPolylineVertex
 10
-9.894309
 20
-39.309008
 30
0.0
 70
    32
  0
VERTEX
  5
189
100
AcDbEntity
  8
1
390
0
  6
Continuous
 62
   172
100
AcDbVertex
100
AcDb3dPolylineVertex
 10
-9.906506
 20
-38.753515
 30
0.0
 70
    32
  0
SEQEND
  5
18A
100
AcDbEntity
  8
1
390
0
  6
Continuous
 62
   172
  0
POLYLINE
  5
18B
100
AcDbEntity
  8
1
390
0
  6
Continuous
 62
   172
100
AcDb3dPolyline
 66
     1
 10
0.0
 20
0.0
 30
0.0
 70
     8
210
0.0
220
0.0
230
-1.0
  0
VERTEX
  5
18C
100
AcDbEntity
  8
1
390
0
  6
Continuous
 62
   172
100
AcDbVertex
100
AcDb3dPolylineVertex
 10
47.089428
 20
-8.947872
 30
0.0
 70
    32
  0
VERTEX
  5
18D
100
AcDbEntity
  8
1
390
0
  6
Continuous
 62
   172
100
AcDbVertex
100
AcDb3dPolylineVertex
 10
49.068306
 20
-8.968412
 30
0.0
 70
    32
  0
VERTEX
  5
18E
100
AcDbEntity
  8
1
390
0
  6
Continuous
 62
   172
100
AcDbVertex
100
AcDb3dPolylineVertex
 10
51.045231
 20
-9.03001
 30
0.0
 70
    32
  0
VERTEX
  5
18F
100
AcDbEntity
  8
1
390
0
  6
Continuous
 62
   172
100
AcDbVertex
100
AcDb3dPolylineVertex
 10
53.018252
 20
-9.132606
 30
0.0
 70
    32
  0
VERTEX
  5
190
100
AcDbEntity
  8
1
390
0
  6
Continuous
 62
   172
100
AcDbVertex
100
AcDb3dPolylineVertex
 10
54.985422
 20
-9.276098
 30
0.0
 70
    32
  0
VERTEX
  5
191
100
AcDbEntity
  8
1
390
0
  6
Continuous
 62
   172
100
AcDbVertex
100
AcDb3dPolylineVertex
 10
56.9448
 20
-9.460345
 30
0.0
 70
    32
  0
VERTEX
  5
192
100
AcDbEntity
  8
1
390
0
  6
Continuous
 62
   172
100
AcDbVertex
100
AcDb3dPolylineVertex
 10
58.894451
 20
-9.685166
 30
0.0
 70
    32
  0
VERTEX
  5
193
100
AcDbEntity
  8
1
390
0
  6
Continuous
 62
   172
100
AcDbVertex
100
AcDb3dPolylineVertex
 10
60.832453
 20
-9.950337
 30
0.0
 70
    32
  0
VERTEX
  5
194
100
AcDbEntity
  8
1
390
0
  6
Continuous
 62
   172
100
AcDbVertex
100
AcDb3dPolylineVertex
 10
62.756891
 20
-10.255598
 30
0.0
 70
    32
  0
VERTEX
  5
195
100
AcDbEntity
  8
1
390
0
  6
Continuous
 62
   172
100
AcDbVertex
100
AcDb3dPolylineVertex
 10
64.665868
 20
-10.600648
 30
0.0
 70
    32
  0
VERTEX
  5
196
100
AcDbEntity
  8
1
390
0
  6
Continuous
 62
   172
100
AcDbVertex
100
AcDb3dPolylineVertex
 10
66.557499
 20
-10.985145
 30
0.0
 70
    32
  0
VERTEX
  5
197
100
AcDbEntity
  8
1
390
0
  6
Continuous
 62
   172
100
AcDbVertex
100
AcDb3dPolylineVertex
 10
68.429917
 20
-11.40871
 30
0.0
 70
    32
  0
VERTEX
  5
198
100
AcDbEntity
  8
1
390
0
  6
Continuous
 62
   172
100
AcDbVertex
100
AcDb3dPolylineVertex
 10
70.281275
 20
-11.870926
 30
0.0
 70
    32
  0
VERTEX
  5
199
100
AcDbEntity
  8
1
390
0
  6
Continuous
 62
   172
100
AcDbVertex
100
AcDb3dPolylineVertex
 10
72.109746
 20
-12.371336
 30
0.0
 70
    32
  0
VERTEX
  5
19A
100
AcDbEntity
  8
1
390
0
  6
Continuous
 62
   172
100
AcDbVertex
100
AcDb3dPolylineVertex
 10
73.913524
 20
-12.909446
 30
0.0
 70
    32
  0
VERTEX
  5
19B
100
AcDbEntity
  8
1
390
0
  6
Continuous
 62
   172
100
AcDbVertex
100
AcDb3dPolylineVertex
 10
75.69083
 20
-13.484726
 30
0.0
 70
    32
  0
VERTEX
  5
19C
100
AcDbEntity
  8
1
390
0
  6
Continuous
 62
   172
100
AcDbVertex
100
AcDb3dPolylineVertex
 10
77.43991
 20
-14.096607
 30
0.0
 70
    32
  0
VERTEX
  5
19D
100
AcDbEntity
  8
1
390
0
  6
Continuous
 62
   172
100
AcDbVertex
100
AcDb3dPolylineVertex
 10
79.159038
 20
-14.744485
 30
0.0
 70
    32
  0
VERTEX
  5
19E
100
AcDbEntity
  8
1
390
0
  6
Continuous
 62
   172
100
AcDbVertex
100
AcDb3dPolylineVertex
 10
80.846517
 20
-15.427722
 30
0.0
 70
    32
  0
VERTEX
  5
19F
100
AcDbEntity
  8
1
390
0
  6
Continuous
 62
   172
100
AcDbVertex
100
AcDb3dPolylineVertex
 10
82.500681
 20
-16.145643
 30
0.0
 70
    32
  0
VERTEX
  5
1A0
100
AcDbEntity
  8
1
390
0
  6
Continuous
 62
   172
100
AcDbVertex
100
AcDb3dPolylineVertex
 10
84.119899
 20
-16.89754
 30
0.0
 70
    32
  0
VERTEX
  5
1A1
100
AcDbEntity
  8
1
390
0
  6
Continuous
 62
   172
100
AcDbVertex
100
AcDb3dPolylineVertex
 10
85.702573
 20
-17.68267
 30
0.0
 70
    32
  0
VERTEX
  5
1A2
100
AcDbEntity
  8
1
390
0
  6
Continuous
 62
   172
100
AcDbVertex
100
AcDb3dPolylineVertex
 10
87.24714
 20
-18.500259
 30
0.0
 70
    32
  0
VERTEX
  5
1A3
100
AcDbEntity
  8
1
390
0
  6
Continuous
 62
   172
100
AcDbVertex
100
AcDb3dPolylineVertex
 10
88.752076
 20
-19.349499
 30
0.0
 70
    32
  0
VERTEX
  5
1A4
100
AcDbEntity
  8
1
390
0
  6
Continuous
 62
   172
100
AcDbVertex
100
AcDb3dPolylineVertex
 10
90.215896
 20
-20.229553
 30
0.0
 70
    32
  0
VERTEX
  5
1A5
100
AcDbEntity
  8
1
390
0
  6
Continuous
 62
   172
100
AcDbVertex
100
AcDb3dPolylineVertex
 10
91.637156
 20
-21.139553
 30
0.0
 70
    32
  0
VERTEX
  5
1A6
100
AcDbEntity
  8
1
390
0
  6
Continuous
 62
   172
100
AcDbVertex
100
AcDb3dPolylineVertex
 10
93.014452
 20
-22.078599
 30
0.0
 70
    32
  0
VERTEX
  5
1A7
100
AcDbEntity
  8
1
390
0
  6
Continuous
 62
   172
100
AcDbVertex
100
AcDb3dPolylineVertex
 10
94.346426
 20
-23.045766
 30
0.0
 70
    32
  0
VERTEX
  5
1A8
100
AcDbEntity
  8
1
390
0
  6
Continuous
 62
   172
100
AcDbVertex
100
AcDb3dPolylineVertex
 10
95.631763
 20
-24.040099
 30
0.0
 70
    32
  0
VERTEX
  5
1A9
100
AcDbEntity
  8
1
390
0
  6
Continuous
 62
   172
100
AcDbVertex
100
AcDb3dPolylineVertex
 10
96.869194
 20
-25.060616
 30
0.0
 70
    32
  0
VERTEX
  5
1AA
100
AcDbEntity
  8
1
390
0
  6
Continuous
 62
   172
100
AcDbVertex
100
AcDb3dPolylineVertex
 10
98.057499
 20
-26.106311
 30
0.0
 70
    32
  0
VERTEX
  5
1AB
100
AcDbEntity
  8
1
390
0
  6
Continuous
 62
   172
100
AcDbVertex
100
AcDb3dPolylineVertex
 10
99.195505
 20
-27.176152
 30
0.0
 70
    32
  0
VERTEX
  5
1AC
100
AcDbEntity
  8
1
390
0
  6
Continuous
 62
   172
100
AcDbVertex
100
AcDb3dPolylineVertex
 10
100.282088
 20
-28.269082
 30
0.0
 70
    32
  0
VERTEX
  5
1AD
100
AcDbEntity
  8
1
390
0
  6
Continuous
 62
   172
100
AcDbVertex
100
AcDb3dPolylineVertex
 10
101.316176
 20
-29.384023
 30
0.0
 70
    32
  0
VERTEX
  5
1AE
100
AcDbEntity
  8
1
390
0
  6
Continuous
 62
   172
100
AcDbVertex
100
AcDb3dPolylineVertex
 10
102.296749
 20
-30.519876
 30
0.0
 70
    32
  0
VERTEX
  5
1AF
100
AcDbEntity
  8
1
390
0
  6
Continuous
 62
   172
100
AcDbVertex
100
AcDb3dPolylineVertex
 10
103.222839
 20
-31.675518
 30
0.0
 70
    32
  0
VERTEX
  5
1B0
100
AcDbEntity
  8
1
390
0
  6
Continuous
 62
   172
100
AcDbVertex
100
AcDb3dPolylineVertex
 10
104.093533
 20
-32.849809
 30
0.0
 70
    32
  0
VERTEX
  5
1B1
100
AcDbEntity
  8
1
390
0
  6
Continuous
 62
   172
100
AcDbVertex
100
AcDb3dPolylineVertex
 10
104.90797
 20
-34.041591
 30
0.0
 70
    32
  0
VERTEX
  5
1B2
100
AcDbEntity
  8
1
390
0
  6
Continuous
 62
   172
100
AcDbVertex
100
AcDb3dPolylineVertex
 10
105.665347
 20
-35.249688
 30
0.0
 70
    32
  0
VERTEX
  5
1B3
100
AcDbEntity
  8
1
390
0
  6
Continuous
 62
   172
100
AcDbVertex
100
AcDb3dPolylineVertex
 10
106.364917
 20
-36.472906
 30
0.0
 70
    32
  0
VERTEX
  5
1B4
100
AcDbEntity
  8
1
390
0
  6
Continuous
 62
   172
100
AcDbVertex
100
AcDb3dPolylineVertex
 10
107.005989
 20
-37.71004
 30
0.0
 70
    32
  0
VERTEX
  5
1B5
100
AcDbEntity
  8
1
390
0
  6
Continuous
 62
   172
100
AcDbVertex
100
AcDb3dPolylineVertex
 10
107.587931
 20
-38.959868
 30
0.0
 70
    32
  0
VERTEX
  5
1B6
100
AcDbEntity
  8
1
390
0
  6
Continuous
 62
   172
100
AcDbVertex
100
AcDb3dPolylineVertex
 10
108.110168
 20
-40.221156
 30
0.0
 70
    32
  0
VERTEX
  5
1B7
100
AcDbEntity
  8
1
390
0
  6
Continuous
 62
   172
100
AcDbVertex
100
AcDb3dPolylineVertex
 10
108.572184
 20
-41.49266
 30
0.0
 70
    32
  0
VERTEX
  5
1B8
100
AcDbEntity
  8
1
390
0
  6
Continuous
 62
   172
100
AcDbVertex
100
AcDb3dPolylineVertex
 10
108.973525
 20
-42.773125
 30
0.0
 70
    32
  0
VERTEX
  5
1B9
100
AcDbEntity
  8
1
390
0
  6
Continuous
 62
   172
100
AcDbVertex
100
AcDb3dPolylineVertex
 10
109.313794
 20
-44.061288
 30
0.0
 70
    32
  0
VERTEX
  5
1BA
100
AcDbEntity
  8
1
390
0
  6
Continuous
 62
   172
100
AcDbVertex
100
AcDb3dPolylineVertex
 10
109.592655
 20
-45.355877
 30
0.0
 70
    32
  0
VERTEX
  5
1BB
100
AcDbEntity
  8
1
390
0
  6
Continuous
 62
   172
100
AcDbVertex
100
AcDb3dPolylineVertex
 10
109.809832
 20
-46.655614
 30
0.0
 70
    32
  0
VERTEX
  5
1BC
100
AcDbEntity
  8
1
390
0
  6
Continuous
 62
   172
100
AcDbVertex
100
AcDb3dPolylineVertex
 10
109.965112
 20
-47.959217
 30
0.0
 70
    32
  0
VERTEX
  5
1BD
100
AcDbEntity
  8
1
390
0
  6
Continuous
 62
   172
100
AcDbVertex
100
AcDb3dPolylineVertex
 10
110.058342
 20
-49.2654
 30
0.0
 70
    32
  0
SEQEND
  5
1BE
100
AcDbEntity
  8
1
390
0
  6
Continuous
 62
   172
  0
POLYLINE
  5
1BF
100
AcDbEntity
  8
1
390
0
  6
Continuous
 62
   172
100
AcDb3dPolyline
 66
     1
 10
0.0
 20
0.0
 30
0.0
 70
     8
210
-1.0
220
0.0
230
0.0
  0
VERTEX
  5
1C0
100
AcDbEntity
  8
1
390
0
  6
Continuous
 62
   172
100
AcDbVertex
100
AcDb3dPolylineVertex
 10
70.0
 20
-53.231592
 30
38.77875
 70
    32
  0
VERTEX
  5
1C1
100
AcDbEntity
  8
1
390
0
  6
Continuous
 62
   172
100
AcDbVertex
100
AcDb3dPolylineVertex
 10
70.0
 20
-53.222894
 30
38.667806
 70
    32
  0
VERTEX
  5
1C2
100
AcDbEntity
  8
1
390
0
  6
Continuous
 62
   172
100
AcDbVertex
100
AcDb3dPolylineVertex
 10
70.0
 20
-53.21455
 30
38.556837
 70
    32
  0
VERTEX
  5
1C3
100
AcDbEntity
  8
1
390
0
  6
Continuous
 62
   172
100
AcDbVertex
100
AcDb3dPolylineVertex
 10
70.0
 20
-53.20656
 30
38.445844
 70
    32
  0
VERTEX
  5
1C4
100
AcDbEntity
  8
1
390
0
  6
Continuous
 62
   172
100
AcDbVertex
100
AcDb3dPolylineVertex
 10
70.0
 20
-53.198925
 30
38.334827
 70
    32
  0
VERTEX
  5
1C5
100
AcDbEntity
  8
1
390
0
  6
Continuous
 62
   172
100
AcDbVertex
100
AcDb3dPolylineVertex
 10
70.0
 20
-53.191645
 30
38.223789
 70
    32
  0
VERTEX
  5
1C6
100
AcDbEntity
  8
1
390
0
  6
Continuous
 62
   172
100
AcDbVertex
100
AcDb3dPolylineVertex
 10
70.0
 20
-53.184719
 30
38.112729
 70
    32
  0
VERTEX
  5
1C7
100
AcDbEntity
  8
1
390
0
  6
Continuous
 62
   172
100
AcDbVertex
100
AcDb3dPolylineVertex
 10
70.0
 20
-53.178148
 30
38.00165
 70
    32
  0
VERTEX
  5
1C8
100
AcDbEntity
  8
1
390
0
  6
Continuous
 62
   172
100
AcDbVertex
100
AcDb3dPolylineVertex
 10
70.0
 20
-53.171932
 30
37.890551
 70
    32
  0
VERTEX
  5
1C9
100
AcDbEntity
  8
1
390
0
  6
Continuous
 62
   172
100
AcDbVertex
100
AcDb3dPolylineVertex
 10
70.0
 20
-53.166071
 30
37.779435
 70
    32
  0
VERTEX
  5
1CA
100
AcDbEntity
  8
1
390
0
  6
Continuous
 62
   172
100
AcDbVertex
100
AcDb3dPolylineVertex
 10
70.0
 20
-53.160565
 30
37.668302
 70
    32
  0
VERTEX
  5
1CB
100
AcDbEntity
  8
1
390
0
  6
Continuous
 62
   172
100
AcDbVertex
100
AcDb3dPolylineVertex
 10
70.0
 20
-53.155414
 30
37.557153
 70
    32
  0
VERTEX
  5
1CC
100
AcDbEntity
  8
1
390
0
  6
Continuous
 62
   172
100
AcDbVertex
100
AcDb3dPolylineVertex
 10
70.0
 20
-53.150618
 30
37.445989
 70
    32
  0
VERTEX
  5
1CD
100
AcDbEntity
  8
1
390
0
  6
Continuous
 62
   172
100
AcDbVertex
100
AcDb3dPolylineVertex
 10
70.0
 20
-53.146176
 30
37.334812
 70
    32
  0
VERTEX
  5
1CE
100
AcDbEntity
  8
1
390
0
  6
Continuous
 62
   172
100
AcDbVertex
100
AcDb3dPolylineVertex
 10
70.0
 20
-53.142091
 30
37.223622
 70
    32
  0
VERTEX
  5
1CF
100
AcDbEntity
  8
1
390
0
  6
Continuous
 62
   172
100
AcDbVertex
100
AcDb3dPolylineVertex
 10
70.0
 20
-53.13836
 30
37.11242
 70
    32
  0
VERTEX
  5
1D0
100
AcDbEntity
  8
1
390
0
  6
Continuous
 62
   172
100
AcDbVertex
100
AcDb3dPolylineVertex
 10
70.0
 20
-53.134984
 30
37.001208
 70
    32
  0
VERTEX
  5
1D1
100
AcDbEntity
  8
1
390
0
  6
Continuous
 62
   172
100
AcDbVertex
100
AcDb3dPolylineVertex
 10
70.0
 20
-53.131964
 30
36.889987
 70
    32
  0
VERTEX
  5
1D2
100
AcDbEntity
  8
1
390
0
  6
Continuous
 62
   172
100
AcDbVertex
100
AcDb3dPolylineVertex
 10
70.0
 20
-53.129299
 30
36.778757
 70
    32
  0
VERTEX
  5
1D3
100
AcDbEntity
  8
1
390
0
  6
Continuous
 62
   172
100
AcDbVertex
100
AcDb3dPolylineVertex
 10
70.0
 20
-53.126989
 30
36.66752
 70
    32
  0
VERTEX
  5
1D4
100
AcDbEntity
  8
1
390
0
  6
Continuous
 62
   172
100
AcDbVertex
100
AcDb3dPolylineVertex
 10
70.0
 20
-53.125034
 30
36.556276
 70
    32
  0
VERTEX
  5
1D5
100
AcDbEntity
  8
1
390
0
  6
Continuous
 62
   172
100
AcDbVertex
100
AcDb3dPolylineVertex
 10
70.0
 20
-53.123435
 30
36.445027
 70
    32
  0
VERTEX
  5
1D6
100
AcDbEntity
  8
1
390
0
  6
Continuous
 62
   172
100
AcDbVertex
100
AcDb3dPolylineVertex
 10
70.0
 20
-53.122192
 30
36.333774
 70
    32
  0
VERTEX
  5
1D7
100
AcDbEntity
  8
1
390
0
  6
Continuous
 62
   172
100
AcDbVertex
100
AcDb3dPolylineVertex
 10
70.0
 20
-53.121303
 30
36.222518
 70
    32
  0
VERTEX
  5
1D8
100
AcDbEntity
  8
1
390
0
  6
Continuous
 62
   172
100
AcDbVertex
100
AcDb3dPolylineVertex
 10
70.0
 20
-53.12077
 30
36.111259
 70
    32
  0
VERTEX
  5
1D9
100
AcDbEntity
  8
1
390
0
  6
Continuous
 62
   172
100
AcDbVertex
100
AcDb3dPolylineVertex
 10
70.0
 20
-53.120592
 30
36.0
 70
    32
  0
VERTEX
  5
1DA
100
AcDbEntity
  8
1
390
0
  6
Continuous
 62
   172
100
AcDbVertex
100
AcDb3dPolylineVertex
 10
70.0
 20
-53.12077
 30
35.888741
 70
    32
  0
VERTEX
  5
1DB
100
AcDbEntity
  8
1
390
0
  6
Continuous
 62
   172
100
AcDbVertex
100
AcDb3dPolylineVertex
 10
70.0
 20
-53.121303
 30
35.777482
 70
    32
  0
VERTEX
  5
1DC
100
AcDbEntity
  8
1
390
0
  6
Continuous
 62
   172
100
AcDbVertex
100
AcDb3dPolylineVertex
 10
70.0
 20
-53.122192
 30
35.666226
 70
    32
  0
VERTEX
  5
1DD
100
AcDbEntity
  8
1
390
0
  6
Continuous
 62
   172
100
AcDbVertex
100
AcDb3dPolylineVertex
 10
70.0
 20
-53.123435
 30
35.554973
 70
    32
  0
VERTEX
  5
1DE
100
AcDbEntity
  8
1
390
0
  6
Continuous
 62
   172
100
AcDbVertex
100
AcDb3dPolylineVertex
 10
70.0
 20
-53.125034
 30
35.443724
 70
    32
  0
VERTEX
  5
1DF
100
AcDbEntity
  8
1
390
0
  6
Continuous
 62
   172
100
AcDbVertex
100
AcDb3dPolylineVertex
 10
70.0
 20
-53.126989
 30
35.33248
 70
    32
  0
VERTEX
  5
1E0
100
AcDbEntity
  8
1
390
0
  6
Continuous
 62
   172
100
AcDbVertex
100
AcDb3dPolylineVertex
 10
70.0
 20
-53.129299
 30
35.221243
 70
    32
  0
VERTEX
  5
1E1
100
AcDbEntity
  8
1
390
0
  6
Continuous
 62
   172
100
AcDbVertex
100
AcDb3dPolylineVertex
 10
70.0
 20
-53.131964
 30
35.110013
 70
    32
  0
VERTEX
  5
1E2
100
AcDbEntity
  8
1
390
0
  6
Continuous
 62
   172
100
AcDbVertex
100
AcDb3dPolylineVertex
 10
70.0
 20
-53.134984
 30
34.998792
 70
    32
  0
VERTEX
  5
1E3
100
AcDbEntity
  8
1
390
0
  6
Continuous
 62
   172
100
AcDbVertex
100
AcDb3dPolylineVertex
 10
70.0
 20
-53.13836
 30
34.88758
 70
    32
  0
VERTEX
  5
1E4
100
AcDbEntity
  8
1
390
0
  6
Continuous
 62
   172
100
AcDbVertex
100
AcDb3dPolylineVertex
 10
70.0
 20
-53.142091
 30
34.776378
 70
    32
  0
VERTEX
  5
1E5
100
AcDbEntity
  8
1
390
0
  6
Continuous
 62
   172
100
AcDbVertex
100
AcDb3dPolylineVertex
 10
70.0
 20
-53.146176
 30
34.665188
 70
    32
  0
VERTEX
  5
1E6
100
AcDbEntity
  8
1
390
0
  6
Continuous
 62
   172
100
AcDbVertex
100
AcDb3dPolylineVertex
 10
70.0
 20
-53.150618
 30
34.554011
 70
    32
  0
VERTEX
  5
1E7
100
AcDbEntity
  8
1
390
0
  6
Continuous
 62
   172
100
AcDbVertex
100
AcDb3dPolylineVertex
 10
70.0
 20
-53.155414
 30
34.442847
 70
    32
  0
VERTEX
  5
1E8
100
AcDbEntity
  8
1
390
0
  6
Continuous
 62
   172
100
AcDbVertex
100
AcDb3dPolylineVertex
 10
70.0
 20
-53.160565
 30
34.331698
 70
    32
  0
VERTEX
  5
1E9
100
AcDbEntity
  8
1
390
0
  6
Continuous
 62
   172
100
AcDbVertex
100
AcDb3dPolylineVertex
 10
70.0
 20
-53.166071
 30
34.220565
 70
    32
  0
VERTEX
  5
1EA
100
AcDbEntity
  8
1
390
0
  6
Continuous
 62
   172
100
AcDbVertex
100
AcDb3dPolylineVertex
 10
70.0
 20
-53.171932
 30
34.109449
 70
    32
  0
VERTEX
  5
1EB
100
AcDbEntity
  8
1
390
0
  6
Continuous
 62
   172
100
AcDbVertex
100
AcDb3dPolylineVertex
 10
70.0
 20
-53.178148
 30
33.99835
 70
    32
  0
VERTEX
  5
1EC
100
AcDbEntity
  8
1
390
0
  6
Continuous
 62
   172
100
AcDbVertex
100
AcDb3dPolylineVertex
 10
70.0
 20
-53.184719
 30
33.887271
 70
    32
  0
VERTEX
  5
1ED
100
AcDbEntity
  8
1
390
0
  6
Continuous
 62
   172
100
AcDbVertex
100
AcDb3dPolylineVertex
 10
70.0
 20
-53.191645
 30
33.776211
 70
    32
  0
VERTEX
  5
1EE
100
AcDbEntity
  8
1
390
0
  6
Continuous
 62
   172
100
AcDbVertex
100
AcDb3dPolylineVertex
 10
70.0
 20
-53.198925
 30
33.665173
 70
    32
  0
VERTEX
  5
1EF
100
AcDbEntity
  8
1
390
0
  6
Continuous
 62
   172
100
AcDbVertex
100
AcDb3dPolylineVertex
 10
70.0
 20
-53.20656
 30
33.554156
 70
    32
  0
VERTEX
  5
1F0
100
AcDbEntity
  8
1
390
0
  6
Continuous
 62
   172
100
AcDbVertex
100
AcDb3dPolylineVertex
 10
70.0
 20
-53.21455
 30
33.443163
 70
    32
  0
VERTEX
  5
1F1
100
AcDbEntity
  8
1
390
0
  6
Continuous
 62
   172
100
AcDbVertex
100
AcDb3dPolylineVertex
 10
70.0
 20
-53.222894
 30
33.332194
 70
    32
  0
SEQEND
  5
1F2
100
AcDbEntity
  8
1
390
0
  6
Continuous
 62
   172
  0
POLYLINE
  5
1F3
100
AcDbEntity
  8
1
390
0
  6
Continuous
 62
   172
100
AcDb3dPolyline
 66
     1
 10
0.0
 20
0.0
 30
0.0
 70
     8
210
-1.0
220
0.0
230
0.0
  0
VERTEX
  5
1F4
100
AcDbEntity
  8
1
390
0
  6
Continuous
 62
   172
100
AcDbVertex
100
AcDb3dPolylineVertex
 10
70.0
 20
-79.104152
 30
33.22125
 70
    32
  0
VERTEX
  5
1F5
100
AcDbEntity
  8
1
390
0
  6
Continuous
 62
   172
100
AcDbVertex
100
AcDb3dPolylineVertex
 10
70.0
 20
-79.112851
 30
33.332194
 70
    32
  0
VERTEX
  5
1F6
100
AcDbEntity
  8
1
390
0
  6
Continuous
 62
   172
100
AcDbVertex
100
AcDb3dPolylineVertex
 10
70.0
 20
-79.121195
 30
33.443163
 70
    32
  0
VERTEX
  5
1F7
100
AcDbEntity
  8
1
390
0
  6
Continuous
 62
   172
100
AcDbVertex
100
AcDb3dPolylineVertex
 10
70.0
 20
-79.129184
 30
33.554156
 70
    32
  0
VERTEX
  5
1F8
100
AcDbEntity
  8
1
390
0
  6
Continuous
 62
   172
100
AcDbVertex
100
AcDb3dPolylineVertex
 10
70.0
 20
-79.136819
 30
33.665173
 70
    32
  0
VERTEX
  5
1F9
100
AcDbEntity
  8
1
390
0
  6
Continuous
 62
   172
100
AcDbVertex
100
AcDb3dPolylineVertex
 10
70.0
 20
-79.1441
 30
33.776211
 70
    32
  0
VERTEX
  5
1FA
100
AcDbEntity
  8
1
390
0
  6
Continuous
 62
   172
100
AcDbVertex
100
AcDb3dPolylineVertex
 10
70.0
 20
-79.151025
 30
33.887271
 70
    32
  0
VERTEX
  5
1FB
100
AcDbEntity
  8
1
390
0
  6
Continuous
 62
   172
100
AcDbVertex
100
AcDb3dPolylineVertex
 10
70.0
 20
-79.157596
 30
33.99835
 70
    32
  0
VERTEX
  5
1FC
100
AcDbEntity
  8
1
390
0
  6
Continuous
 62
   172
100
AcDbVertex
100
AcDb3dPolylineVertex
 10
70.0
 20
-79.163812
 30
34.109449
 70
    32
  0
VERTEX
  5
1FD
100
AcDbEntity
  8
1
390
0
  6
Continuous
 62
   172
100
AcDbVertex
100
AcDb3dPolylineVertex
 10
70.0
 20
-79.169674
 30
34.220565
 70
    32
  0
VERTEX
  5
1FE
100
AcDbEntity
  8
1
390
0
  6
Continuous
 62
   172
100
AcDbVertex
100
AcDb3dPolylineVertex
 10
70.0
 20
-79.17518
 30
34.331698
 70
    32
  0
VERTEX
  5
1FF
100
AcDbEntity
  8
1
390
0
  6
Continuous
 62
   172
100
AcDbVertex
100
AcDb3dPolylineVertex
 10
70.0
 20
-79.180331
 30
34.442847
 70
    32
  0
VERTEX
  5
200
100
AcDbEntity
  8
1
390
0
  6
Continuous
 62
   172
100
AcDbVertex
100
AcDb3dPolylineVertex
 10
70.0
 20
-79.185127
 30
34.554011
 70
    32
  0
VERTEX
  5
201
100
AcDbEntity
  8
1
390
0
  6
Continuous
 62
   172
100
AcDbVertex
100
AcDb3dPolylineVertex
 10
70.0
 20
-79.189568
 30
34.665188
 70
    32
  0
VERTEX
  5
202
100
AcDbEntity
  8
1
390
0
  6
Continuous
 62
   172
100
AcDbVertex
100
AcDb3dPolylineVertex
 10
70.0
 20
-79.193654
 30
34.776378
 70
    32
  0
VERTEX
  5
203
100
AcDbEntity
  8
1
390
0
  6
Continuous
 62
   172
100
AcDbVertex
100
AcDb3dPolylineVertex
 10
70.0
 20
-79.197385
 30
34.88758
 70
    32
  0
VERTEX
  5
204
100
AcDbEntity
  8
1
390
0
  6
Continuous
 62
   172
100
AcDbVertex
100
AcDb3dPolylineVertex
 10
70.0
 20
-79.200761
 30
34.998792
 70
    32
  0
VERTEX
  5
205
100
AcDbEntity
  8
1
390
0
  6
Continuous
 62
   172
100
AcDbVertex
100
AcDb3dPolylineVertex
 10
70.0
 20
-79.203781
 30
35.110013
 70
    32
  0
VERTEX
  5
206
100
AcDbEntity
  8
1
390
0
  6
Continuous
 62
   172
100
AcDbVertex
100
AcDb3dPolylineVertex
 10
70.0
 20
-79.206446
 30
35.221243
 70
    32
  0
VERTEX
  5
207
100
AcDbEntity
  8
1
390
0
  6
Continuous
 62
   172
100
AcDbVertex
100
AcDb3dPolylineVertex
 10
70.0
 20
-79.208756
 30
35.33248
 70
    32
  0
VERTEX
  5
208
100
AcDbEntity
  8
1
390
0
  6
Continuous
 62
   172
100
AcDbVertex
100
AcDb3dPolylineVertex
 10
70.0
 20
-79.21071
 30
35.443724
 70
    32
  0
VERTEX
  5
209
100
AcDbEntity
  8
1
390
0
  6
Continuous
 62
   172
100
AcDbVertex
100
AcDb3dPolylineVertex
 10
70.0
 20
-79.212309
 30
35.554973
 70
    32
  0
VERTEX
  5
20A
100
AcDbEntity
  8
1
390
0
  6
Continuous
 62
   172
100
AcDbVertex
100
AcDb3dPolylineVertex
 10
70.0
 20
-79.213553
 30
35.666226
 70
    32
  0
VERTEX
  5
20B
100
AcDbEntity
  8
1
390
0
  6
Continuous
 62
   172
100
AcDbVertex
100
AcDb3dPolylineVertex
 10
70.0
 20
-79.214442
 30
35.777482
 70
    32
  0
VERTEX
  5
20C
100
AcDbEntity
  8
1
390
0
  6
Continuous
 62
   172
100
AcDbVertex
100
AcDb3dPolylineVertex
 10
70.0
 20
-79.214975
 30
35.888741
 70
    32
  0
VERTEX
  5
20D
100
AcDbEntity
  8
1
390
0
  6
Continuous
 62
   172
100
AcDbVertex
100
AcDb3dPolylineVertex
 10
70.0
 20
-79.215152
 30
36.0
 70
    32
  0
VERTEX
  5
20E
100
AcDbEntity
  8
1
390
0
  6
Continuous
 62
   172
100
AcDbVertex
100
AcDb3dPolylineVertex
 10
70.0
 20
-79.214975
 30
36.111259
 70
    32
  0
VERTEX
  5
20F
100
AcDbEntity
  8
1
390
0
  6
Continuous
 62
   172
100
AcDbVertex
100
AcDb3dPolylineVertex
 10
70.0
 20
-79.214442
 30
36.222518
 70
    32
  0
VERTEX
  5
210
100
AcDbEntity
  8
1
390
0
  6
Continuous
 62
   172
100
AcDbVertex
100
AcDb3dPolylineVertex
 10
70.0
 20
-79.213553
 30
36.333774
 70
    32
  0
VERTEX
  5
211
100
AcDbEntity
  8
1
390
0
  6
Continuous
 62
   172
100
AcDbVertex
100
AcDb3dPolylineVertex
 10
70.0
 20
-79.212309
 30
36.445027
 70
    32
  0
VERTEX
  5
212
100
AcDbEntity
  8
1
390
0
  6
Continuous
 62
   172
100
AcDbVertex
100
AcDb3dPolylineVertex
 10
70.0
 20
-79.21071
 30
36.556276
 70
    32
  0
VERTEX
  5
213
100
AcDbEntity
  8
1
390
0
  6
Continuous
 62
   172
100
AcDbVertex
100
AcDb3dPolylineVertex
 10
70.0
 20
-79.208756
 30
36.66752
 70
    32
  0
VERTEX
  5
214
100
AcDbEntity
  8
1
390
0
  6
Continuous
 62
   172
100
AcDbVertex
100
AcDb3dPolylineVertex
 10
70.0
 20
-79.206446
 30
36.778757
 70
    32
  0
VERTEX
  5
215
100
AcDbEntity
  8
1
390
0
  6
Continuous
 62
   172
100
AcDbVertex
100
AcDb3dPolylineVertex
 10
70.0
 20
-79.203781
 30
36.889987
 70
    32
  0
VERTEX
  5
216
100
AcDbEntity
  8
1
390
0
  6
Continuous
 62
   172
100
AcDbVertex
100
AcDb3dPolylineVertex
 10
70.0
 20
-79.200761
 30
37.001208
 70
    32
  0
VERTEX
  5
217
100
AcDbEntity
  8
1
390
0
  6
Continuous
 62
   172
100
AcDbVertex
100
AcDb3dPolylineVertex
 10
70.0
 20
-79.197385
 30
37.11242
 70
    32
  0
VERTEX
  5
218
100
AcDbEntity
  8
1
390
0
  6
Continuous
 62
   172
100
AcDbVertex
100
AcDb3dPolylineVertex
 10
70.0
 20
-79.193654
 30
37.223622
 70
    32
  0
VERTEX
  5
219
100
AcDbEntity
  8
1
390
0
  6
Continuous
 62
   172
100
AcDbVertex
100
AcDb3dPolylineVertex
 10
70.0
 20
-79.189568
 30
37.334812
 70
    32
  0
VERTEX
  5
21A
100
AcDbEntity
  8
1
390
0
  6
Continuous
 62
   172
100
AcDbVertex
100
AcDb3dPolylineVertex
 10
70.0
 20
-79.185127
 30
37.445989
 70
    32
  0
VERTEX
  5
21B
100
AcDbEntity
  8
1
390
0
  6
Continuous
 62
   172
100
AcDbVertex
100
AcDb3dPolylineVertex
 10
70.0
 20
-79.180331
 30
37.557153
 70
    32
  0
VERTEX
  5
21C
100
AcDbEntity
  8
1
390
0
  6
Continuous
 62
   172
100
AcDbVertex
100
AcDb3dPolylineVertex
 10
70.0
 20
-79.17518
 30
37.668302
 70
    32
  0
VERTEX
  5
21D
100
AcDbEntity
  8
1
390
0
  6
Continuous
 62
   172
100
AcDbVertex
100
AcDb3dPolylineVertex
 10
70.0
 20
-79.169674
 30
37.779435
 70
    32
  0
VERTEX
  5
21E
100
AcDbEntity
  8
1
390
0
  6
Continuous
 62
   172
100
AcDbVertex
100
AcDb3dPolylineVertex
 10
70.0
 20
-79.163812
 30
37.890551
 70
    32
  0
VERTEX
  5
21F
100
AcDbEntity
  8
1
390
0
  6
Continuous
 62
   172
100
AcDbVertex
100
AcDb3dPolylineVertex
 10
70.0
 20
-79.157596
 30
38.00165
 70
    32
  0
VERTEX
  5
220
100
AcDbEntity
  8
1
390
0
  6
Continuous
 62
   172
100
AcDbVertex
100
AcDb3dPolylineVertex
 10
70.0
 20
-79.151025
 30
38.112729
 70
    32
  0
VERTEX
  5
221
100
AcDbEntity
  8
1
390
0
  6
Continuous
 62
   172
100
AcDbVertex
100
AcDb3dPolylineVertex
 10
70.0
 20
-79.1441
 30
38.223789
 70
    32
  0
VERTEX
  5
222
100
AcDbEntity
  8
1
390
0
  6
Continuous
 62
   172
100
AcDbVertex
100
AcDb3dPolylineVertex
 10
70.0
 20
-79.136819
 30
38.334827
 70
    32
  0
VERTEX
  5
223
100
AcDbEntity
  8
1
390
0
  6
Continuous
 62
   172
100
AcDbVertex
100
AcDb3dPolylineVertex
 10
70.0
 20
-79.129184
 30
38.445844
 70
    32
  0
VERTEX
  5
224
100
AcDbEntity
  8
1
390
0
  6
Continuous
 62
   172
100
AcDbVertex
100
AcDb3dPolylineVertex
 10
70.0
 20
-79.121195
 30
38.556837
 70
    32
  0
VERTEX
  5
225
100
AcDbEntity
  8
1
390
0
  6
Continuous
 62
   172
100
AcDbVertex
100
AcDb3dPolylineVertex
 10
70.0
 20
-79.112851
 30
38.667806
 70
    32
  0
SEQEND
  5
226
100
AcDbEntity
  8
1
390
0
  6
Continuous
 62
   172
  0
POLYLINE
  5
227
100
AcDbEntity
  8
1
390
0
  6
Continuous
 62
   172
100
AcDb3dPolyline
 66
     1
 10
0.0
 20
0.0
 30
0.0
 70
     8
210
-1.0
220
0.0
230
0.0
  0
VERTEX
  5
228
100
AcDbEntity
  8
1
390
0
  6
Continuous
 62
   172
100
AcDbVertex
100
AcDb3dPolylineVertex
 10
70.0
 20
-53.231592
 30
33.22125
 70
    32
  0
VERTEX
  5
229
100
AcDbEntity
  8
1
390
0
  6
Continuous
 62
   172
100
AcDbVertex
100
AcDb3dPolylineVertex
 10
70.0
 20
-53.307651
 30
33.131209
 70
    32
  0
VERTEX
  5
22A
100
AcDbEntity
  8
1
390
0
  6
Continuous
 62
   172
100
AcDbVertex
100
AcDb3dPolylineVertex
 10
70.0
 20
-53.386971
 30
33.043816
 70
    32
  0
VERTEX
  5
22B
100
AcDbEntity
  8
1
390
0
  6
Continuous
 62
   172
100
AcDbVertex
100
AcDb3dPolylineVertex
 10
70.0
 20
-53.469452
 30
32.959179
 70
    32
  0
VERTEX
  5
22C
100
AcDbEntity
  8
1
390
0
  6
Continuous
 62
   172
100
AcDbVertex
100
AcDb3dPolylineVertex
 10
70.0
 20
-53.554991
 30
32.877405
 70
    32
  0
VERTEX
  5
22D
100
AcDbEntity
  8
1
390
0
  6
Continuous
 62
   172
100
AcDbVertex
100
AcDb3dPolylineVertex
 10
70.0
 20
-53.643482
 30
32.798595
 70
    32
  0
VERTEX
  5
22E
100
AcDbEntity
  8
1
390
0
  6
Continuous
 62
   172
100
AcDbVertex
100
AcDb3dPolylineVertex
 10
70.0
 20
-53.734812
 30
32.722849
 70
    32
  0
VERTEX
  5
22F
100
AcDbEntity
  8
1
390
0
  6
Continuous
 62
   172
100
AcDbVertex
100
AcDb3dPolylineVertex
 10
70.0
 20
-53.828869
 30
32.650262
 70
    32
  0
VERTEX
  5
230
100
AcDbEntity
  8
1
390
0
  6
Continuous
 62
   172
100
AcDbVertex
100
AcDb3dPolylineVertex
 10
70.0
 20
-53.925534
 30
32.580923
 70
    32
  0
VERTEX
  5
231
100
AcDbEntity
  8
1
390
0
  6
Continuous
 62
   172
100
AcDbVertex
100
AcDb3dPolylineVertex
 10
70.0
 20
-54.024685
 30
32.514921
 70
    32
  0
VERTEX
  5
232
100
AcDbEntity
  8
1
390
0
  6
Continuous
 62
   172
100
AcDbVertex
100
AcDb3dPolylineVertex
 10
70.0
 20
-54.1262
 30
32.452338
 70
    32
  0
VERTEX
  5
233
100
AcDbEntity
  8
1
390
0
  6
Continuous
 62
   172
100
AcDbVertex
100
AcDb3dPolylineVertex
 10
70.0
 20
-54.229951
 30
32.393251
 70
    32
  0
VERTEX
  5
234
100
AcDbEntity
  8
1
390
0
  6
Continuous
 62
   172
100
AcDbVertex
100
AcDb3dPolylineVertex
 10
70.0
 20
-54.335808
 30
32.337735
 70
    32
  0
VERTEX
  5
235
100
AcDbEntity
  8
1
390
0
  6
Continuous
 62
   172
100
AcDbVertex
100
AcDb3dPolylineVertex
 10
70.0
 20
-54.443639
 30
32.28586
 70
    32
  0
VERTEX
  5
236
100
AcDbEntity
  8
1
390
0
  6
Continuous
 62
   172
100
AcDbVertex
100
AcDb3dPolylineVertex
 10
70.0
 20
-54.553308
 30
32.237691
 70
    32
  0
VERTEX
  5
237
100
AcDbEntity
  8
1
390
0
  6
Continuous
 62
   172
100
AcDbVertex
100
AcDb3dPolylineVertex
 10
70.0
 20
-54.664678
 30
32.193287
 70
    32
  0
VERTEX
  5
238
100
AcDbEntity
  8
1
390
0
  6
Continuous
 62
   172
100
AcDbVertex
100
AcDb3dPolylineVertex
 10
70.0
 20
-54.77761
 30
32.152704
 70
    32
  0
VERTEX
  5
239
100
AcDbEntity
  8
1
390
0
  6
Continuous
 62
   172
100
AcDbVertex
100
AcDb3dPolylineVertex
 10
70.0
 20
-54.891962
 30
32.115994
 70
    32
  0
VERTEX
  5
23A
100
AcDbEntity
  8
1
390
0
  6
Continuous
 62
   172
100
AcDbVertex
100
AcDb3dPolylineVertex
 10
70.0
 20
-55.007592
 30
32.083202
 70
    32
  0
VERTEX
  5
23B
100
AcDbEntity
  8
1
390
0
  6
Continuous
 62
   172
100
AcDbVertex
100
AcDb3dPolylineVertex
 10
70.0
 20
-55.124354
 30
32.054368
 70
    32
  0
VERTEX
  5
23C
100
AcDbEntity
  8
1
390
0
  6
Continuous
 62
   172
100
AcDbVertex
100
AcDb3dPolylineVertex
 10
70.0
 20
-55.242103
 30
32.029531
 70
    32
  0
VERTEX
  5
23D
100
AcDbEntity
  8
1
390
0
  6
Continuous
 62
   172
100
AcDbVertex
100
AcDb3dPolylineVertex
 10
70.0
 20
-55.36069
 30
32.008719
 70
    32
  0
VERTEX
  5
23E
100
AcDbEntity
  8
1
390
0
  6
Continuous
 62
   172
100
AcDbVertex
100
AcDb3dPolylineVertex
 10
70.0
 20
-55.479968
 30
31.99196
 70
    32
  0
VERTEX
  5
23F
100
AcDbEntity
  8
1
390
0
  6
Continuous
 62
   172
100
AcDbVertex
100
AcDb3dPolylineVertex
 10
70.0
 20
-55.599787
 30
31.979274
 70
    32
  0
VERTEX
  5
240
100
AcDbEntity
  8
1
390
0
  6
Continuous
 62
   172
100
AcDbVertex
100
AcDb3dPolylineVertex
 10
70.0
 20
-55.719997
 30
31.970678
 70
    32
  0
VERTEX
  5
241
100
AcDbEntity
  8
1
390
0
  6
Continuous
 62
   172
100
AcDbVertex
100
AcDb3dPolylineVertex
 10
70.0
 20
-55.840447
 30
31.966182
 70
    32
  0
VERTEX
  5
242
100
AcDbEntity
  8
1
390
0
  6
Continuous
 62
   172
100
AcDbVertex
100
AcDb3dPolylineVertex
 10
70.0
 20
-55.960988
 30
31.965791
 70
    32
  0
VERTEX
  5
243
100
AcDbEntity
  8
1
390
0
  6
Continuous
 62
   172
100
AcDbVertex
100
AcDb3dPolylineVertex
 10
70.0
 20
-56.081467
 30
31.969507
 70
    32
  0
VERTEX
  5
244
100
AcDbEntity
  8
1
390
0
  6
Continuous
 62
   172
100
AcDbVertex
100
AcDb3dPolylineVertex
 10
70.0
 20
-56.201735
 30
31.977324
 70
    32
  0
VERTEX
  5
245
100
AcDbEntity
  8
1
390
0
  6
Continuous
 62
   172
100
AcDbVertex
100
AcDb3dPolylineVertex
 10
70.0
 20
-56.32164
 30
31.989232
 70
    32
  0
VERTEX
  5
246
100
AcDbEntity
  8
1
390
0
  6
Continuous
 62
   172
100
AcDbVertex
100
AcDb3dPolylineVertex
 10
70.0
 20
-56.441032
 30
32.005218
 70
    32
  0
VERTEX
  5
247
100
AcDbEntity
  8
1
390
0
  6
Continuous
 62
   172
100
AcDbVertex
100
AcDb3dPolylineVertex
 10
70.0
 20
-56.559762
 30
32.02526
 70
    32
  0
VERTEX
  5
248
100
AcDbEntity
  8
1
390
0
  6
Continuous
 62
   172
100
AcDbVertex
100
AcDb3dPolylineVertex
 10
70.0
 20
-56.677682
 30
32.049334
 70
    32
  0
VERTEX
  5
249
100
AcDbEntity
  8
1
390
0
  6
Continuous
 62
   172
100
AcDbVertex
100
AcDb3dPolylineVertex
 10
70.0
 20
-56.794643
 30
32.07741
 70
    32
  0
VERTEX
  5
24A
100
AcDbEntity
  8
1
390
0
  6
Continuous
 62
   172
100
AcDbVertex
100
AcDb3dPolylineVertex
 10
70.0
 20
-56.910499
 30
32.109452
 70
    32
  0
VERTEX
  5
24B
100
AcDbEntity
  8
1
390
0
  6
Continuous
 62
   172
100
AcDbVertex
100
AcDb3dPolylineVertex
 10
70.0
 20
-57.025106
 30
32.14542
 70
    32
  0
VERTEX
  5
24C
100
AcDbEntity
  8
1
390
0
  6
Continuous
 62
   172
100
AcDbVertex
100
AcDb3dPolylineVertex
 10
70.0
 20
-57.138319
 30
32.18527
 70
    32
  0
VERTEX
  5
24D
100
AcDbEntity
  8
1
390
0
  6
Continuous
 62
   172
100
AcDbVertex
100
AcDb3dPolylineVertex
 10
70.0
 20
-57.249997
 30
32.228951
 70
    32
  0
VERTEX
  5
24E
100
AcDbEntity
  8
1
390
0
  6
Continuous
 62
   172
100
AcDbVertex
100
AcDb3dPolylineVertex
 10
70.0
 20
-57.36
 30
32.276408
 70
    32
  0
VERTEX
  5
24F
100
AcDbEntity
  8
1
390
0
  6
Continuous
 62
   172
100
AcDbVertex
100
AcDb3dPolylineVertex
 10
70.0
 20
-57.468191
 30
32.327583
 70
    32
  0
VERTEX
  5
250
100
AcDbEntity
  8
1
390
0
  6
Continuous
 62
   172
100
AcDbVertex
100
AcDb3dPolylineVertex
 10
70.0
 20
-57.574434
 30
32.382411
 70
    32
  0
VERTEX
  5
251
100
AcDbEntity
  8
1
390
0
  6
Continuous
 62
   172
100
AcDbVertex
100
AcDb3dPolylineVertex
 10
70.0
 20
-57.678595
 30
32.440824
 70
    32
  0
VERTEX
  5
252
100
AcDbEntity
  8
1
390
0
  6
Continuous
 62
   172
100
AcDbVertex
100
AcDb3dPolylineVertex
 10
70.0
 20
-57.780545
 30
32.502748
 70
    32
  0
VERTEX
  5
253
100
AcDbEntity
  8
1
390
0
  6
Continuous
 62
   172
100
AcDbVertex
100
AcDb3dPolylineVertex
 10
70.0
 20
-57.880157
 30
32.568107
 70
    32
  0
VERTEX
  5
254
100
AcDbEntity
  8
1
390
0
  6
Continuous
 62
   172
100
AcDbVertex
100
AcDb3dPolylineVertex
 10
70.0
 20
-57.977304
 30
32.636817
 70
    32
  0
VERTEX
  5
255
100
AcDbEntity
  8
1
390
0
  6
Continuous
 62
   172
100
AcDbVertex
100
AcDb3dPolylineVertex
 10
70.0
 20
-58.071866
 30
32.708793
 70
    32
  0
VERTEX
  5
256
100
AcDbEntity
  8
1
390
0
  6
Continuous
 62
   172
100
AcDbVertex
100
AcDb3dPolylineVertex
 10
70.0
 20
-58.163724
 30
32.783945
 70
    32
  0
VERTEX
  5
257
100
AcDbEntity
  8
1
390
0
  6
Continuous
 62
   172
100
AcDbVertex
100
AcDb3dPolylineVertex
 10
70.0
 20
-58.252763
 30
32.862179
 70
    32
  0
VERTEX
  5
258
100
AcDbEntity
  8
1
390
0
  6
Continuous
 62
   172
100
AcDbVertex
100
AcDb3dPolylineVertex
 10
70.0
 20
-58.338872
 30
32.943397
 70
    32
  0
VERTEX
  5
259
100
AcDbEntity
  8
1
390
0
  6
Continuous
 62
   172
100
AcDbVertex
100
AcDb3dPolylineVertex
 10
70.0
 20
-58.421943
 30
33.027498
 70
    32
  0
SEQEND
  5
25A
100
AcDbEntity
  8
1
390
0
  6
Continuous
 62
   172
  0
POLYLINE
  5
25B
100
AcDbEntity
  8
1
390
0
  6
Continuous
 62
   172
100
AcDb3dPolyline
 66
     1
 10
0.0
 20
0.0
 30
0.0
 70
     8
210
-1.0
220
0.0
230
0.0
  0
VERTEX
  5
25C
100
AcDbEntity
  8
1
390
0
  6
Continuous
 62
   172
100
AcDbVertex
100
AcDb3dPolylineVertex
 10
70.0
 20
-73.833872
 30
33.114375
 70
    32
  0
VERTEX
  5
25D
100
AcDbEntity
  8
1
390
0
  6
Continuous
 62
   172
100
AcDbVertex
100
AcDb3dPolylineVertex
 10
70.0
 20
-73.913801
 30
33.027498
 70
    32
  0
VERTEX
  5
25E
100
AcDbEntity
  8
1
390
0
  6
Continuous
 62
   172
100
AcDbVertex
100
AcDb3dPolylineVertex
 10
70.0
 20
-73.996872
 30
32.943397
 70
    32
  0
VERTEX
  5
25F
100
AcDbEntity
  8
1
390
0
  6
Continuous
 62
   172
100
AcDbVertex
100
AcDb3dPolylineVertex
 10
70.0
 20
-74.082981
 30
32.862179
 70
    32
  0
VERTEX
  5
260
100
AcDbEntity
  8
1
390
0
  6
Continuous
 62
   172
100
AcDbVertex
100
AcDb3dPolylineVertex
 10
70.0
 20
-74.172021
 30
32.783945
 70
    32
  0
VERTEX
  5
261
100
AcDbEntity
  8
1
390
0
  6
Continuous
 62
   172
100
AcDbVertex
100
AcDb3dPolylineVertex
 10
70.0
 20
-74.263879
 30
32.708793
 70
    32
  0
VERTEX
  5
262
100
AcDbEntity
  8
1
390
0
  6
Continuous
 62
   172
100
AcDbVertex
100
AcDb3dPolylineVertex
 10
70.0
 20
-74.358441
 30
32.636817
 70
    32
  0
VERTEX
  5
263
100
AcDbEntity
  8
1
390
0
  6
Continuous
 62
   172
100
AcDbVertex
100
AcDb3dPolylineVertex
 10
70.0
 20
-74.455588
 30
32.568107
 70
    32
  0
VERTEX
  5
264
100
AcDbEntity
  8
1
390
0
  6
Continuous
 62
   172
100
AcDbVertex
100
AcDb3dPolylineVertex
 10
70.0
 20
-74.555199
 30
32.502748
 70
    32
  0
VERTEX
  5
265
100
AcDbEntity
  8
1
390
0
  6
Continuous
 62
   172
100
AcDbVertex
100
AcDb3dPolylineVertex
 10
70.0
 20
-74.657149
 30
32.440824
 70
    32
  0
VERTEX
  5
266
100
AcDbEntity
  8
1
390
0
  6
Continuous
 62
   172
100
AcDbVertex
100
AcDb3dPolylineVertex
 10
70.0
 20
-74.761311
 30
32.382411
 70
    32
  0
VERTEX
  5
267
100
AcDbEntity
  8
1
390
0
  6
Continuous
 62
   172
100
AcDbVertex
100
AcDb3dPolylineVertex
 10
70.0
 20
-74.867554
 30
32.327583
 70
    32
  0
VERTEX
  5
268
100
AcDbEntity
  8
1
390
0
  6
Continuous
 62
   172
100
AcDbVertex
100
AcDb3dPolylineVertex
 10
70.0
 20
-74.975745
 30
32.276408
 70
    32
  0
VERTEX
  5
269
100
AcDbEntity
  8
1
390
0
  6
Continuous
 62
   172
100
AcDbVertex
100
AcDb3dPolylineVertex
 10
70.0
 20
-75.085748
 30
32.228951
 70
    32
  0
VERTEX
  5
26A
100
AcDbEntity
  8
1
390
0
  6
Continuous
 62
   172
100
AcDbVertex
100
AcDb3dPolylineVertex
 10
70.0
 20
-75.197426
 30
32.18527
 70
    32
  0
VERTEX
  5
26B
100
AcDbEntity
  8
1
390
0
  6
Continuous
 62
   172
100
AcDbVertex
100
AcDb3dPolylineVertex
 10
70.0
 20
-75.310639
 30
32.14542
 70
    32
  0
VERTEX
  5
26C
100
AcDbEntity
  8
1
390
0
  6
Continuous
 62
   172
100
AcDbVertex
100
AcDb3dPolylineVertex
 10
70.0
 20
-75.425246
 30
32.109452
 70
    32
  0
VERTEX
  5
26D
100
AcDbEntity
  8
1
390
0
  6
Continuous
 62
   172
100
AcDbVertex
100
AcDb3dPolylineVertex
 10
70.0
 20
-75.541102
 30
32.07741
 70
    32
  0
VERTEX
  5
26E
100
AcDbEntity
  8
1
390
0
  6
Continuous
 62
   172
100
AcDbVertex
100
AcDb3dPolylineVertex
 10
70.0
 20
-75.658063
 30
32.049334
 70
    32
  0
VERTEX
  5
26F
100
AcDbEntity
  8
1
390
0
  6
Continuous
 62
   172
100
AcDbVertex
100
AcDb3dPolylineVertex
 10
70.0
 20
-75.775983
 30
32.02526
 70
    32
  0
VERTEX
  5
270
100
AcDbEntity
  8
1
390
0
  6
Continuous
 62
   172
100
AcDbVertex
100
AcDb3dPolylineVertex
 10
70.0
 20
-75.894713
 30
32.005218
 70
    32
  0
VERTEX
  5
271
100
AcDbEntity
  8
1
390
0
  6
Continuous
 62
   172
100
AcDbVertex
100
AcDb3dPolylineVertex
 10
70.0
 20
-76.014105
 30
31.989232
 70
    32
  0
VERTEX
  5
272
100
AcDbEntity
  8
1
390
0
  6
Continuous
 62
   172
100
AcDbVertex
100
AcDb3dPolylineVertex
 10
70.0
 20
-76.13401
 30
31.977324
 70
    32
  0
VERTEX
  5
273
100
AcDbEntity
  8
1
390
0
  6
Continuous
 62
   172
100
AcDbVertex
100
AcDb3dPolylineVertex
 10
70.0
 20
-76.254278
 30
31.969507
 70
    32
  0
VERTEX
  5
274
100
AcDbEntity
  8
1
390
0
  6
Continuous
 62
   172
100
AcDbVertex
100
AcDb3dPolylineVertex
 10
70.0
 20
-76.374757
 30
31.965791
 70
    32
  0
VERTEX
  5
275
100
AcDbEntity
  8
1
390
0
  6
Continuous
 62
   172
100
AcDbVertex
100
AcDb3dPolylineVertex
 10
70.0
 20
-76.495297
 30
31.966182
 70
    32
  0
VERTEX
  5
276
100
AcDbEntity
  8
1
390
0
  6
Continuous
 62
   172
100
AcDbVertex
100
AcDb3dPolylineVertex
 10
70.0
 20
-76.615748
 30
31.970678
 70
    32
  0
VERTEX
  5
277
100
AcDbEntity
  8
1
390
0
  6
Continuous
 62
   172
100
AcDbVertex
100
AcDb3dPolylineVertex
 10
70.0
 20
-76.735958
 30
31.979274
 70
    32
  0
VERTEX
  5
278
100
AcDbEntity
  8
1
390
0
  6
Continuous
 62
   172
100
AcDbVertex
100
AcDb3dPolylineVertex
 10
70.0
 20
-76.855777
 30
31.99196
 70
    32
  0
VERTEX
  5
279
100
AcDbEntity
  8
1
390
0
  6
Continuous
 62
   172
100
AcDbVertex
100
AcDb3dPolylineVertex
 10
70.0
 20
-76.975055
 30
32.008719
 70
    32
  0
VERTEX
  5
27A
100
AcDbEntity
  8
1
390
0
  6
Continuous
 62
   172
100
AcDbVertex
100
AcDb3dPolylineVertex
 10
70.0
 20
-77.093642
 30
32.029531
 70
    32
  0
VERTEX
  5
27B
100
AcDbEntity
  8
1
390
0
  6
Continuous
 62
   172
100
AcDbVertex
100
AcDb3dPolylineVertex
 10
70.0
 20
-77.211391
 30
32.054368
 70
    32
  0
VERTEX
  5
27C
100
AcDbEntity
  8
1
390
0
  6
Continuous
 62
   172
100
AcDbVertex
100
AcDb3dPolylineVertex
 10
70.0
 20
-77.328153
 30
32.083202
 70
    32
  0
VERTEX
  5
27D
100
AcDbEntity
  8
1
390
0
  6
Continuous
 62
   172
100
AcDbVertex
100
AcDb3dPolylineVertex
 10
70.0
 20
-77.443783
 30
32.115994
 70
    32
  0
VERTEX
  5
27E
100
AcDbEntity
  8
1
390
0
  6
Continuous
 62
   172
100
AcDbVertex
100
AcDb3dPolylineVertex
 10
70.0
 20
-77.558135
 30
32.152704
 70
    32
  0
VERTEX
  5
27F
100
AcDbEntity
  8
1
390
0
  6
Continuous
 62
   172
100
AcDbVertex
100
AcDb3dPolylineVertex
 10
70.0
 20
-77.671067
 30
32.193287
 70
    32
  0
VERTEX
  5
280
100
AcDbEntity
  8
1
390
0
  6
Continuous
 62
   172
100
AcDbVertex
100
AcDb3dPolylineVertex
 10
70.0
 20
-77.782437
 30
32.237691
 70
    32
  0
VERTEX
  5
281
100
AcDbEntity
  8
1
390
0
  6
Continuous
 62
   172
100
AcDbVertex
100
AcDb3dPolylineVertex
 10
70.0
 20
-77.892106
 30
32.28586
 70
    32
  0
VERTEX
  5
282
100
AcDbEntity
  8
1
390
0
  6
Continuous
 62
   172
100
AcDbVertex
100
AcDb3dPolylineVertex
 10
70.0
 20
-77.999937
 30
32.337735
 70
    32
  0
VERTEX
  5
283
100
AcDbEntity
  8
1
390
0
  6
Continuous
 62
   172
100
AcDbVertex
100
AcDb3dPolylineVertex
 10
70.0
 20
-78.105794
 30
32.393251
 70
    32
  0
VERTEX
  5
284
100
AcDbEntity
  8
1
390
0
  6
Continuous
 62
   172
100
AcDbVertex
100
AcDb3dPolylineVertex
 10
70.0
 20
-78.209544
 30
32.452338
 70
    32
  0
VERTEX
  5
285
100
AcDbEntity
  8
1
390
0
  6
Continuous
 62
   172
100
AcDbVertex
100
AcDb3dPolylineVertex
 10
70.0
 20
-78.311059
 30
32.514921
 70
    32
  0
VERTEX
  5
286
100
AcDbEntity
  8
1
390
0
  6
Continuous
 62
   172
100
AcDbVertex
100
AcDb3dPolylineVertex
 10
70.0
 20
-78.410211
 30
32.580923
 70
    32
  0
VERTEX
  5
287
100
AcDbEntity
  8
1
390
0
  6
Continuous
 62
   172
100
AcDbVertex
100
AcDb3dPolylineVertex
 10
70.0
 20
-78.506876
 30
32.650262
 70
    32
  0
VERTEX
  5
288
100
AcDbEntity
  8
1
390
0
  6
Continuous
 62
   172
100
AcDbVertex
100
AcDb3dPolylineVertex
 10
70.0
 20
-78.600932
 30
32.722849
 70
    32
  0
VERTEX
  5
289
100
AcDbEntity
  8
1
390
0
  6
Continuous
 62
   172
100
AcDbVertex
100
AcDb3dPolylineVertex
 10
70.0
 20
-78.692263
 30
32.798595
 70
    32
  0
VERTEX
  5
28A
100
AcDbEntity
  8
1
390
0
  6
Continuous
 62
   172
100
AcDbVertex
100
AcDb3dPolylineVertex
 10
70.0
 20
-78.780753
 30
32.877405
 70
    32
  0
VERTEX
  5
28B
100
AcDbEntity
  8
1
390
0
  6
Continuous
 62
   172
100
AcDbVertex
100
AcDb3dPolylineVertex
 10
70.0
 20
-78.866293
 30
32.959179
 70
    32
  0
VERTEX
  5
28C
100
AcDbEntity
  8
1
390
0
  6
Continuous
 62
   172
100
AcDbVertex
100
AcDb3dPolylineVertex
 10
70.0
 20
-78.948774
 30
33.043816
 70
    32
  0
VERTEX
  5
28D
100
AcDbEntity
  8
1
390
0
  6
Continuous
 62
   172
100
AcDbVertex
100
AcDb3dPolylineVertex
 10
70.0
 20
-79.028093
 30
33.131209
 70
    32
  0
SEQEND
  5
28E
100
AcDbEntity
  8
1
390
0
  6
Continuous
 62
   172
  0
ENDSEC
  0
SECTION
  2
OBJECTS
  0
DICTIONARY
  5
19
100
AcDbDictionary
280
     0
281
     1
  3
ACAD_GROUP
350
1A
  3
ACAD_MLINESTYLE
350
1B
  3
ACAD_LAYOUT
350
1E
  3
ACAD_PLOTSETTINGS
350
22
  3
ACAD_PLOTSTYLENAME
350
1F
  3
ACAD_WIPEOUT_VARS
350
23
  0
DICTIONARY
  5
1A
102
{ACAD_REACTORS
330
19
102
}
100
AcDbDictionary
280
     0
281
     1
  0
DICTIONARY
  5
1B
102
{ACAD_REACTORS
330
19
102
}
100
AcDbDictionary
280
     0
281
     1
  3
Standard
350
1C
  0
MLINESTYLE
  5
1C
102
{ACAD_REACTORS
330
1B
102
}
100
AcDbMlineStyle
  2
Standard
 70
     0
  3

 62
     0
 51
90.0
 52
90.0
 71
     2
 49
0.5
 62
   256
  6
ByLayer
 49
-0.5
 62
   256
  6
ByLayer
  0
ACDBDICTIONARYWDFLT
  5
1F
102
{ACAD_REACTORS
330
19
102
}
100
AcDbDictionary
281
     1
  3
Normal
350
1D
100
AcDbDictionaryWithDefault
340
1D
  0
ACDBPLACEHOLDER
  5
1D
102
{ACAD_REACTORS
330
1F
102
}
  0
LAYOUT
  5
20
102
{ACAD_REACTORS
330
1E
102
}
100
AcDbPlotSettings
  1

  2

  4

  6

 40
0.0
 41
0.0
 42
0.0
 43
0.0
 44
0.0
 45
0.0
 46
0.0
 47
0.0
 48
0.0
 49
0.0
140
0.0
141
0.0
142
1.0
143
1.0
 70
  1024
 72
     0
 73
     0
 74
     0
  7

 75
     0
147
1.0
148
0.0
149
0.0
100
AcDbLayout
  1
Model
 70
     0
 71
     0
 10
0.0
 20
0.0
 11
0.0
 21
0.0
 12
0.0
 22
0.0
 32
0.0
 14
0.0
 24
0.0
 34
0.0
 15
0.0
 25
0.0
 35
0.0
146
0.0
 13
0.0
 23
0.0
 33
0.0
 16
0.0
 26
0.0
 36
0.0
 17
0.0
 27
0.0
 37
0.0
 76
     0
330
A
331
0
345
0
346
0
  0
LAYOUT
  5
21
102
{ACAD_REACTORS
330
1E
102
}
100
AcDbPlotSettings
  1

  2

  4

  6

 40
0.0
 41
0.0
 42
0.0
 43
0.0
 44
0.0
 45
0.0
 46
0.0
 47
0.0
 48
0.0
 49
0.0
140
0.0
141
0.0
142
1.0
143
1.0
 70
     0
 72
     0
 73
     0
 74
     0
  7

 75
     0
147
1.0
148
0.0
149
0.0
100
AcDbLayout
  1
Layout1
 70
     0
 71
     0
 10
0.0
 20
0.0
 11
0.0
 21
0.0
 12
0.0
 22
0.0
 32
0.0
 14
0.0
 24
0.0
 34
0.0
 15
0.0
 25
0.0
 35
0.0
146
0.0
 13
0.0
 23
0.0
 33
0.0
 16
0.0
 26
0.0
 36
0.0
 17
0.0
 27
0.0
 37
0.0
 76
     0
330
B
331
0
345
0
346
0
  0
DICTIONARY
  5
1E
102
{ACAD_REACTORS
330
19
102
}
100
AcDbDictionary
280
     0
281
     1
  3
Layout1
350
21
  3
Model
350
20
  0
DICTIONARY
  5
22
102
{ACAD_REACTORS
330
19
102
}
100
AcDbDictionary
280
     0
281
     1
  0
WIPEOUTVARIABLES
  5
23
100
AcDbWipeoutVariables
 70
     1
  0
ENDSEC
  0
EOF
