  0
SECTION
  2
HEADER
  9
$ACADVER
  1
AC1021
  9
$ACADMAINTVER
 70
    25
  9
$DWGCODEPAGE
  3
ANSI_1252
  9
$INSBASE
 10
0.0
 20
0.0
 30
0.0
  9
$EXTMIN
 10
-31.69382362845734
 20
-31.86946805096083
 30
0.0
  9
$EXTMAX
 10
256.5785661889453
 20
134.6420575134563
 30
0.0
  9
$LIMMIN
 10
0.0
 20
0.0
  9
$LIMMAX
 10
220.0
 20
170.0
  9
$ORTHOMODE
 70
     0
  9
$REGENMODE
 70
     1
  9
$FILLMODE
 70
     1
  9
$QTEXTMODE
 70
     0
  9
$MIRRTEXT
 70
     0
  9
$LTSCALE
 40
1.0
  9
$ATTMODE
 70
     1
  9
$TEXTSIZE
 40
10.0
  9
$TRACEWID
 40
1.0
  9
$TEXTSTYLE
  7
Standard
  9
$CLAYER
  8
0
  9
$CELTYPE
  6
ByLayer
  9
$CECOLOR
 62
     1
  9
$CELTSCALE
 40
1.0
  9
$DISPSILH
 70
     0
  9
$DIMSCALE
 40
1.0
  9
$DIMASZ
 40
0.25
  9
$DIMEXO
 40
0.0625
  9
$DIMDLI
 40
0.375
  9
$DIMRND
 40
0.01
  9
$DIMDLE
 40
0.0
  9
$DIMEXE
 40
0.125
  9
$DIMTP
 40
0.0
  9
$DIMTM
 40
0.0
  9
$DIMTXT
 40
0.15
  9
$DIMCEN
 40
0.0
  9
$DIMTSZ
 40
0.0
  9
$DIMTOL
 70
     0
  9
$DIMLIM
 70
     0
  9
$DIMTIH
 70
     1
  9
$DIMTOH
 70
     0
  9
$DIMSE1
 70
     0
  9
$DIMSE2
 70
     0
  9
$DIMTAD
 70
     1
  9
$DIMZIN
 70
     1
  9
$DIMBLK
  1

  9
$DIMASO
 70
     1
  9
$DIMSHO
 70
     1
  9
$DIMPOST
  1
 in
  9
$DIMAPOST
  1
 in
  9
$DIMALT
 70
     0
  9
$DIMALTD
 70
     2
  9
$DIMALTF
 40
1.0
  9
$DIMLFAC
 40
1.0
  9
$DIMTOFL
 70
     1
  9
$DIMTVP
 40
0.0
  9
$DIMTIX
 70
     0
  9
$DIMSOXD
 70
     0
  9
$DIMSAH
 70
     0
  9
$DIMBLK1
  1

  9
$DIMBLK2
  1

  9
$DIMSTYLE
  2
Standard
  9
$DIMCLRD
 70
     0
  9
$DIMCLRE
 70
     0
  9
$DIMCLRT
 70
     0
  9
$DIMTFAC
 40
1.0
  9
$DIMGAP
 40
0.0625
  9
$DIMJUST
 70
     0
  9
$DIMSD1
 70
     0
  9
$DIMSD2
 70
     0
  9
$DIMTOLJ
 70
     1
  9
$DIMTZIN
 70
     0
  9
$DIMALTZ
 70
     0
  9
$DIMALTTZ
 70
     0
  9
$DIMUPT
 70
     0
  9
$DIMDEC
 70
     2
  9
$DIMTDEC
 70
     3
  9
$DIMALTU
 70
     2
  9
$DIMALTTD
 70
     2
  9
$DIMTXSTY
  7
Standard
  9
$DIMAUNIT
 70
     0
  9
$DIMADEC
 70
     2
  9
$DIMALTRND
 40
0.01
  9
$DIMAZIN
 70
     0
  9
$DIMDSEP
 70
     0
  9
$DIMATFIT
 70
     3
  9
$DIMFRAC
 70
     2
  9
$DIMLDRBLK
  1

  9
$DIMLUNIT
 70
     2
  9
$DIMLWD
 70
    -2
  9
$DIMLWE
 70
    -2
  9
$DIMTMOVE
 70
     0
  9
$DIMFXL
 40
1.0
  9
$DIMFXLON
 70
     0
  9
$DIMJOGANG
 40
0.7853981633974483
  9
$DIMTFILL
 70
     0
  9
$DIMTFILLCLR
 70
     7
  9
$DIMARCSYM
 70
     0
  9
$DIMLTYPE
  6
ByBlock
  9
$DIMLTEX1
  6
ByBlock
  9
$DIMLTEX2
  6
ByBlock
  9
$LUNITS
 70
     2
  9
$LUPREC
 70
     2
  9
$SKETCHINC
 40
1.0
  9
$FILLETRAD
 40
1.0
  9
$AUNITS
 70
     0
  9
$AUPREC
 70
     2
  9
$MENU
  1
.
  9
$ELEVATION
 40
0.0
  9
$PELEVATION
 40
0.0
  9
$THICKNESS
 40
0.0
  9
$LIMCHECK
 70
     0
  9
$CHAMFERA
 40
0.5
  9
$CHAMFERB
 40
0.5
  9
$CHAMFERC
 40
1.0
  9
$CHAMFERD
 40
0.0
  9
$SKPOLY
 70
     0
  9
$TDCREATE
 40
2455247.5004075
  9
$TDUCREATE
 40
2455247.708740833
  9
$TDUPDATE
 40
2455247.500407511
  9
$TDUUPDATE
 40
2455247.708740845
  9
$TDINDWG
 40
0.0
  9
$TDUSRTIMER
 40
0.0
  9
$USRTIMER
 70
     1
  9
$ANGBASE
 50
0.0
  9
$ANGDIR
 70
     0
  9
$PDMODE
 70
     0
  9
$PDSIZE
 40
0.0
  9
$PLINEWID
 40
0.0
  9
$SPLFRAME
 70
     0
  9
$SPLINETYPE
 70
     5
  9
$SPLINESEGS
 70
    20
  9
$HANDSEED
  5
40E
  9
$SURFTAB1
 70
     6
  9
$SURFTAB2
 70
     6
  9
$SURFTYPE
 70
     6
  9
$SURFU
 70
     6
  9
$SURFV
 70
     6
  9
$UCSBASE
  2

  9
$UCSNAME
  2

  9
$UCSORG
 10
0.0
 20
0.0
 30
0.0
  9
$UCSXDIR
 10
1.0
 20
0.0
 30
0.0
  9
$UCSYDIR
 10
0.0
 20
1.0
 30
0.0
  9
$UCSORTHOREF
  2

  9
$UCSORTHOVIEW
 70
     0
  9
$UCSORGTOP
 10
0.0
 20
0.0
 30
0.0
  9
$UCSORGBOTTOM
 10
0.0
 20
0.0
 30
0.0
  9
$UCSORGLEFT
 10
0.0
 20
0.0
 30
0.0
  9
$UCSORGRIGHT
 10
0.0
 20
0.0
 30
0.0
  9
$UCSORGFRONT
 10
0.0
 20
0.0
 30
0.0
  9
$UCSORGBACK
 10
0.0
 20
0.0
 30
0.0
  9
$PUCSBASE
  2

  9
$PUCSNAME
  2

  9
$PUCSORG
 10
0.0
 20
0.0
 30
0.0
  9
$PUCSXDIR
 10
1.0
 20
0.0
 30
0.0
  9
$PUCSYDIR
 10
0.0
 20
1.0
 30
0.0
  9
$PUCSORTHOREF
  2

  9
$PUCSORTHOVIEW
 70
     0
  9
$PUCSORGTOP
 10
0.0
 20
0.0
 30
0.0
  9
$PUCSORGBOTTOM
 10
0.0
 20
0.0
 30
0.0
  9
$PUCSORGLEFT
 10
0.0
 20
0.0
 30
0.0
  9
$PUCSORGRIGHT
 10
0.0
 20
0.0
 30
0.0
  9
$PUCSORGFRONT
 10
0.0
 20
0.0
 30
0.0
  9
$PUCSORGBACK
 10
0.0
 20
0.0
 30
0.0
  9
$USERI1
 70
     0
  9
$USERI2
 70
     0
  9
$USERI3
 70
     0
  9
$USERI4
 70
     0
  9
$USERI5
 70
     0
  9
$USERR1
 40
0.0
  9
$USERR2
 40
0.0
  9
$USERR3
 40
0.0
  9
$USERR4
 40
0.0
  9
$USERR5
 40
0.0
  9
$WORLDVIEW
 70
     1
  9
$SHADEDGE
 70
     3
  9
$SHADEDIF
 70
    70
  9
$TILEMODE
 70
     1
  9
$MAXACTVP
 70
    64
  9
$PINSBASE
 10
0.0
 20
0.0
 30
0.0
  9
$PLIMCHECK
 70
     0
  9
$PEXTMIN
 10
0.0
 20
0.0
 30
0.0
  9
$PEXTMAX
 10
11.0
 20
8.5
 30
0.0
  9
$PLIMMIN
 10
0.0
 20
0.0
  9
$PLIMMAX
 10
11.0
 20
8.5
  9
$UNITMODE
 70
     0
  9
$VISRETAIN
 70
     1
  9
$PLINEGEN
 70
     0
  9
$PSLTSCALE
 70
     1
  9
$TREEDEPTH
 70
  3020
  9
$CMLSTYLE
  2
Standard
  9
$CMLJUST
 70
     0
  9
$CMLSCALE
 40
1.0
  9
$PROXYGRAPHICS
 70
     1
  9
$MEASUREMENT
 70
     0
  9
$CELWEIGHT
370
    -1
  9
$ENDCAPS
280
     0
  9
$JOINSTYLE
280
     0
  9
$LWDISPLAY
290
     0
  9
$INSUNITS
 70
     1
  9
$HYPERLINKBASE
  1

  9
$STYLESHEET
  1

  9
$XEDIT
290
     1
  9
$CEPSNTYPE
380
     0
  9
$PSTYLEMODE
290
     1
  9
$FINGERPRINTGUID
  2
{6A0C849C-5F06-4155-88AE-BB24DD7D7C2A}
  9
$VERSIONGUID
  2
{FAEB1C32-E019-11D5-929B-00C0DF256EC4}
  9
$EXTNAMES
290
     1
  9
$PSVPSCALE
 40
0.0
  9
$OLESTARTUP
290
     0
  9
$SORTENTS
280
   127
  9
$INDEXCTL
280
     0
  9
$HIDETEXT
280
     1
  9
$XCLIPFRAME
290
     0
  9
$HALOGAP
280
     0
  9
$OBSCOLOR
 70
   257
  9
$OBSLTYPE
280
     0
  9
$INTERSECTIONDISPLAY
280
     0
  9
$INTERSECTIONCOLOR
 70
   257
  9
$DIMASSOC
280
     2
  9
$PROJECTNAME
  1

  9
$CAMERADISPLAY
290
     0
  9
$LENSLENGTH
 40
50.0
  9
$CAMERAHEIGHT
 40
0.0
  9
$STEPSPERSEC
 40
2.0
  9
$STEPSIZE
 40
6.0
  9
$3DDWFPREC
 40
2.0
  9
$PSOLWIDTH
 40
0.25
  9
$PSOLHEIGHT
 40
4.0
  9
$LOFTANG1
 40
1.570796326794897
  9
$LOFTANG2
 40
1.570796326794897
  9
$LOFTMAG1
 40
0.0
  9
$LOFTMAG2
 40
0.0
  9
$LOFTPARAM
 70
     7
  9
$LOFTNORMALS
280
     1
  9
$LATITUDE
 40
37.795
  9
$LONGITUDE
 40
-122.394
  9
$NORTHDIRECTION
 40
0.0
  9
$TIMEZONE
 70
 -8000
  9
$LIGHTGLYPHDISPLAY
280
     1
  9
$TILEMODELIGHTSYNCH
280
     1
  9
$SOLIDHIST
280
     1
  9
$SHOWHIST
280
     1
  9
$DWFFRAME
280
     2
  9
$DGNFRAME
280
     2
  9
$REALWORLDSCALE
290
     1
  9
$INTERFERECOLOR
 62
   256
  9
$CSHADOW
280
     0
  9
$SHADOWPLANELOCATION
 40
0.0
  0
ENDSEC
  0
SECTION
  2
CLASSES
  0
CLASS
  1
ACDBDICTIONARYWDFLT
  2
AcDbDictionaryWithDefault
  3
ObjectDBX Classes
 90
        0
 91
        5
280
     0
281
     0
  0
CLASS
  1
VISUALSTYLE
  2
AcDbVisualStyle
  3
ObjectDBX Classes
 90
     4095
 91
        5
280
     0
281
     0
  0
CLASS
  1
TABLESTYLE
  2
AcDbTableStyle
  3
ObjectDBX Classes
 90
     4095
 91
        4
280
     0
281
     0
  0
CLASS
  1
TCOPTIONALDATA
  2
TcOptionalData
  3
ExTcadCustObjs|Description: TurboCAD extension data object
 90
        0
 91
        4
280
     0
281
     0
  0
CLASS
  1
SCALE
  2
AcDbScale
  3
ObjectDBX Classes
 90
     1153
 91
        4
280
     0
281
     0
  0
CLASS
  1
DICTIONARYVAR
  2
AcDbDictionaryVar
  3
ObjectDBX Classes
 90
        0
 91
        4
280
     0
281
     0
  0
CLASS
  1
CELLSTYLEMAP
  2
AcDbCellStyleMap
  3
ObjectDBX Classes
 90
     1152
 91
        4
280
     0
281
     0
  0
ENDSEC
  0
SECTION
  2
TABLES
  0
TABLE
  2
VPORT
  5
8
330
0
100
AcDbSymbolTable
 70
     1
  0
VPORT
  5
29
330
8
100
AcDbSymbolTableRecord
100
AcDbViewportTableRecord
  2
*Active
 70
     0
 10
0.0
 20
0.0
 11
1.0
 21
1.0
 12
0.0
 22
0.0
 13
0.0
 23
0.0
 14
10.0
 24
10.0
 15
10.0
 25
10.0
 16
0.0
 26
0.0
 36
1.0
 17
135.9528038679346
 27
56.81047357585806
 37
0.0
 40
179.0125811461573
 41
2.218216318785578
 42
50.0
 43
0.0
 44
0.0
 50
0.0
 51
0.0
 71
     0
 72
   100
 73
     1
 74
     3
 75
     0
 76
     1
 77
     0
 78
     0
281
     0
 65
     1
110
0.0
120
0.0
130
0.0
111
1.0
121
0.0
131
0.0
112
0.0
122
1.0
132
0.0
 79
     0
146
0.0
 60
     3
 61
     5
292
     1
282
     1
141
0.0
142
0.0
 63
   250
  0
ENDTAB
  0
TABLE
  2
LTYPE
  5
5
330
0
100
AcDbSymbolTable
 70
    14
  0
LTYPE
  5
14
330
5
100
AcDbSymbolTableRecord
100
AcDbLinetypeTableRecord
  2
ByBlock
 70
     0
  3

 72
    65
 73
     0
 40
0.0
  0
LTYPE
  5
15
330
5
100
AcDbSymbolTableRecord
100
AcDbLinetypeTableRecord
  2
ByLayer
 70
     0
  3

 72
    65
 73
     0
 40
0.0
  0
LTYPE
  5
16
330
5
100
AcDbSymbolTableRecord
100
AcDbLinetypeTableRecord
  2
Continuous
 70
     0
  3
Solid line
 72
    65
 73
     0
 40
0.0
  0
LTYPE
  5
3C
330
5
100
AcDbSymbolTableRecord
100
AcDbLinetypeTableRecord
  2
BORDER
 70
     0
  3
BORDER
 72
    65
 73
     6
 40
1.75
 49
0.5
 74
     0
 49
-0.25
 74
     0
 49
0.5
 74
     0
 49
-0.25
 74
     0
 49
0.0
 74
     0
 49
-0.25
 74
     0
  0
LTYPE
  5
3D
330
5
100
AcDbSymbolTableRecord
100
AcDbLinetypeTableRecord
  2
CENTER
 70
     0
  3
CENTER
 72
    65
 73
     4
 40
2.0
 49
1.25
 74
     0
 49
-0.25
 74
     0
 49
0.25
 74
     0
 49
-0.25
 74
     0
  0
LTYPE
  5
3E
330
5
100
AcDbSymbolTableRecord
100
AcDbLinetypeTableRecord
  2
DASHDOT
 70
     0
  3
DASHDOT
 72
    65
 73
     4
 40
1.0
 49
0.5
 74
     0
 49
-0.25
 74
     0
 49
0.0
 74
     0
 49
-0.25
 74
     0
  0
LTYPE
  5
3F
330
5
100
AcDbSymbolTableRecord
100
AcDbLinetypeTableRecord
  2
DASHED
 70
     0
  3
DASHED
 72
    65
 73
     2
 40
0.75
 49
0.5
 74
     0
 49
-0.25
 74
     0
  0
LTYPE
  5
40
330
5
100
AcDbSymbolTableRecord
100
AcDbLinetypeTableRecord
  2
DIVIDE
 70
     0
  3
DIVIDE
 72
    65
 73
     6
 40
1.25
 49
0.5
 74
     0
 49
-0.25
 74
     0
 49
0.0
 74
     0
 49
-0.25
 74
     0
 49
0.0
 74
     0
 49
-0.25
 74
     0
  0
LTYPE
  5
41
330
5
100
AcDbSymbolTableRecord
100
AcDbLinetypeTableRecord
  2
DOT
 70
     0
  3
DOT
 72
    65
 73
     2
 40
0.25
 49
0.0
 74
     0
 49
-0.25
 74
     0
  0
LTYPE
  5
42
330
5
100
AcDbSymbolTableRecord
100
AcDbLinetypeTableRecord
  2
HIDDEN
 70
     0
  3
HIDDEN
 72
    65
 73
     2
 40
0.375
 49
0.25
 74
     0
 49
-0.125
 74
     0
  0
LTYPE
  5
43
330
5
100
AcDbSymbolTableRecord
100
AcDbLinetypeTableRecord
  2
PHANTOM
 70
     0
  3
PHANTOM
 72
    65
 73
     6
 40
2.5
 49
1.25
 74
     0
 49
-0.25
 74
     0
 49
0.25
 74
     0
 49
-0.25
 74
     0
 49
0.25
 74
     0
 49
-0.25
 74
     0
  0
LTYPE
  5
44
330
5
100
AcDbSymbolTableRecord
100
AcDbLinetypeTableRecord
  2
$INVISIBLE
 70
     0
  3
$INVISIBLE
 72
    65
 73
     2
 40
200.0
 49
-100.0
 74
     0
 49
-100.0
 74
     0
  0
LTYPE
  5
45
330
5
100
AcDbSymbolTableRecord
100
AcDbLinetypeTableRecord
  2
$AUXILIARY
 70
     0
  3
$AUXILIARY
 72
    65
 73
     2
 40
0.1000000014901161
 49
0.0500000007450581
 74
     0
 49
-0.0500000007450581
 74
     0
  0
LTYPE
  5
46
330
5
100
AcDbSymbolTableRecord
100
AcDbLinetypeTableRecord
  2
$CONSTRUCTION
 70
     0
  3
$CONSTRUCTION
 72
    65
 73
     4
 40
0.3
 49
0.2
 74
     0
 49
-0.05
 74
     0
 49
0.0
 74
     0
 49
-0.05
 74
     0
  0
LTYPE
  5
47
330
5
100
AcDbSymbolTableRecord
100
AcDbLinetypeTableRecord
  2
$SNAPEXT
 70
     0
  3
$SNAPEXT
 72
    65
 73
     2
 40
0.04
 49
0.02
 74
     0
 49
-0.02
 74
     0
  0
LTYPE
  5
48
330
5
100
AcDbSymbolTableRecord
100
AcDbLinetypeTableRecord
  2
$DYNDIMDOT
 70
     0
  3
$DYNDIMDOT
 72
    65
 73
     2
 40
0.05
 49
0.0
 74
     0
 49
-0.05
 74
     0
  0
ENDTAB
  0
TABLE
  2
LAYER
  5
2
330
0
100
AcDbSymbolTable
 70
     6
  0
LAYER
  5
10
330
2
100
AcDbSymbolTableRecord
100
AcDbLayerTableRecord
  2
0
 70
     0
 62
     7
  6
Continuous
370
     0
390
F
347
0
  0
LAYER
  5
49
330
2
100
AcDbSymbolTableRecord
100
AcDbLayerTableRecord
  2
CHASSIS
 70
     0
 62
     7
  6
Continuous
370
     0
390
F
347
0
  0
LAYER
  5
4A
330
2
100
AcDbSymbolTableRecord
100
AcDbLayerTableRecord
  2
$CONSTRUCTION
 70
     0
 62
   254
420
 12572888
  6
$CONSTRUCTION
370
     0
390
F
347
0
  0
LAYER
  5
4B
330
2
100
AcDbSymbolTableRecord
100
AcDbLayerTableRecord
  2
BASE
 70
     0
 62
     1
420
 16711680
  6
Continuous
370
     0
390
F
347
0
  0
LAYER
  5
4C
330
2
100
AcDbSymbolTableRecord
100
AcDbLayerTableRecord
  2
BODY
 70
     0
 62
     7
  6
Continuous
370
     0
390
F
347
0
  0
LAYER
  5
4D
330
2
100
AcDbSymbolTableRecord
100
AcDbLayerTableRecord
  2
INTERIOR
 70
     0
 62
   -53
420
 14408560
  6
Continuous
370
     0
390
F
347
0
  0
ENDTAB
  0
TABLE
  2
STYLE
  5
3
330
0
100
AcDbSymbolTable
 70
     6
  0
STYLE
  5
11
330
3
100
AcDbSymbolTableRecord
100
AcDbTextStyleTableRecord
  2
Standard
 70
     0
 40
0.0
 41
1.0
 50
0.0
 71
     0
 42
0.25
  3

  4

1001
ACAD
1000
Times New Roman
1071
      290
  0
STYLE
  5
4F
330
3
100
AcDbSymbolTableRecord
100
AcDbTextStyleTableRecord
  2
Text Style 1
 70
     0
 40
0.0
 41
1.0
 50
0.0
 71
     0
 42
1.916666626930237
  3
ARIAL.SHX
  4

  0
STYLE
  5
50
330
3
100
AcDbSymbolTableRecord
100
AcDbTextStyleTableRecord
  2
Text Style 2
 70
     0
 40
0.0
 41
1.0
 50
0.0
 71
     0
 42
1.916666626930237
  3
ARIAL.SHX
  4

  0
STYLE
  5
51
330
3
100
AcDbSymbolTableRecord
100
AcDbTextStyleTableRecord
  2
Text Style 3
 70
     0
 40
0.0
 41
1.0
 50
0.0
 71
     0
 42
1.916666626930237
  3
ARIAL.SHX
  4

  0
STYLE
  5
7B
330
3
100
AcDbSymbolTableRecord
100
AcDbTextStyleTableRecord
  2
_TCW_TXTSTY_1
 70
     0
 40
0.0
 41
1.0
 50
0.0
 71
     0
 42
2.555555582046509
  3
arial.ttf
  4

1001
ACAD
1000
Arial
1071
       34
  0
STYLE
  5
2BE
330
3
100
AcDbSymbolTableRecord
100
AcDbTextStyleTableRecord
  2
_TCW_TXTSTY_2
 70
     0
 40
0.0
 41
1.0
 50
0.0
 71
     0
 42
6.0
  3
times.ttf
  4

1001
ACAD
1000
Times New Roman
1071
      290
  0
ENDTAB
  0
TABLE
  2
VIEW
  5
6
330
0
100
AcDbSymbolTable
 70
     1
  0
VIEW
  5
4E
330
6
100
AcDbSymbolTableRecord
100
AcDbViewTableRecord
  2
View_0
 70
     0
 40
170.0
 10
110.0
 20
85.0
 41
220.0
 11
0.0
 21
0.0
 31
1.0
 12
0.0
 22
0.0
 32
0.0
 42
50.0
 43
0.0
 44
0.0
 50
0.0
 71
     0
281
     0
 72
     0
 73
     0
  0
ENDTAB
  0
TABLE
  2
UCS
  5
7
330
0
100
AcDbSymbolTable
 70
     0
  0
ENDTAB
  0
TABLE
  2
APPID
  5
9
330
0
100
AcDbSymbolTable
 70
     2
  0
APPID
  5
12
330
9
100
AcDbSymbolTableRecord
100
AcDbRegAppTableRecord
  2
ACAD
 70
     0
  0
APPID
  5
3B
330
9
100
AcDbSymbolTableRecord
100
AcDbRegAppTableRecord
  2
TCAD
 70
     0
  0
ENDTAB
  0
TABLE
  2
DIMSTYLE
  5
A
330
0
100
AcDbSymbolTable
 70
     1
100
AcDbDimStyleTable
  0
DIMSTYLE
105
27
330
A
100
AcDbSymbolTableRecord
100
AcDbDimStyleTableRecord
  2
Standard
 70
     0
  3
 in
  4
 in
 41
0.25
 43
0.375
 44
0.125
 45
0.01
 74
     0
 77
     1
 78
     1
140
0.15
141
0.0
143
1.0
147
0.0625
148
0.01
172
     1
179
     2
271
     2
272
     3
276
     2
278
     0
340
11
345
14
346
14
347
14
  0
ENDTAB
  0
TABLE
  2
BLOCK_RECORD
  5
1
330
0
100
AcDbSymbolTable
 70
     1
  0
BLOCK_RECORD
  5
1F
330
1
100
AcDbSymbolTableRecord
100
AcDbBlockTableRecord
  2
*Model_Space
340
22
 70
     0
280
     1
281
     0
  0
BLOCK_RECORD
  5
1B
330
1
100
AcDbSymbolTableRecord
100
AcDbBlockTableRecord
  2
*Paper_Space
340
1E
 70
     0
280
     1
281
     0
  0
ENDTAB
  0
ENDSEC
  0
SECTION
  2
BLOCKS
  0
BLOCK
  5
20
330
1F
100
AcDbEntity
  8
0
100
AcDbBlockBegin
  2
*Model_Space
 70
     0
 10
0.0
 20
0.0
 30
0.0
  3
*Model_Space
  1

  0
ENDBLK
  5
21
330
1F
100
AcDbEntity
  8
0
100
AcDbBlockEnd
  0
BLOCK
  5
1C
330
1B
100
AcDbEntity
 67
     1
  8
0
100
AcDbBlockBegin
  2
*Paper_Space
 70
     0
 10
0.0
 20
0.0
 30
0.0
  3
*Paper_Space
  1

  0
ENDBLK
  5
1D
330
1B
100
AcDbEntity
 67
     1
  8
0
100
AcDbBlockEnd
  0
ENDSEC
  0
SECTION
  2
ENTITIES
  0
LINE
  5
56
102
{ACAD_XDICTIONARY
360
54
102
}
330
1F
100
AcDbEntity
  8
0
  6
Continuous
 62
     7
 48
0.2000000029802322
370
    25
100
AcDbLine
 10
152.8949253929793
 20
-16.9944680509609
 30
0.0
 11
-31.52859827532298
 21
-16.9944680509609
 31
0.0
  0
SOLID
  5
59
102
{ACAD_XDICTIONARY
360
57
102
}
330
1F
100
AcDbEntity
  8
0
  6
Continuous
 62
     7
 48
0.2000000029802322
100
AcDbTrace
 10
-9.513990916468934
 20
-28.36946805096092
 30
0.0
 11
2.486009083531066
 21
-28.36946805096092
 31
0.0
 12
-9.513990916468934
 22
-31.36946805096092
 32
0.0
 13
2.486009083531066
 23
-31.36946805096092
 33
0.0
  0
LWPOLYLINE
  5
5C
102
{ACAD_XDICTIONARY
360
5A
102
}
330
1F
100
AcDbEntity
  8
0
  6
Continuous
 62
     7
 48
0.2000000029802322
370
    25
100
AcDbPolyline
 90
        4
 70
     1
 43
0.0
 10
2.486009083531066
 20
-28.36946805096092
 10
14.48600908353107
 20
-28.36946805096092
 10
14.48600908353107
 20
-31.36946805096092
 10
2.486009083531066
 20
-31.36946805096092
  0
SOLID
  5
5F
102
{ACAD_XDICTIONARY
360
5D
102
}
330
1F
100
AcDbEntity
  8
0
  6
Continuous
 62
     7
 48
0.2000000029802322
100
AcDbTrace
 10
14.48600908353107
 20
-28.36946805096092
 30
0.0
 11
26.48600908353107
 21
-28.36946805096092
 31
0.0
 12
14.48600908353107
 22
-31.36946805096092
 32
0.0
 13
26.48600908353107
 23
-31.36946805096092
 33
0.0
  0
LWPOLYLINE
  5
62
102
{ACAD_XDICTIONARY
360
60
102
}
330
1F
100
AcDbEntity
  8
0
  6
Continuous
 62
     7
 48
0.2000000029802322
370
    25
100
AcDbPolyline
 90
        4
 70
     1
 43
0.0
 10
26.48600908353107
 20
-28.36946805096092
 10
38.48600908353107
 20
-28.36946805096092
 10
38.48600908353107
 20
-31.36946805096092
 10
26.48600908353107
 20
-31.36946805096092
  0
SOLID
  5
65
102
{ACAD_XDICTIONARY
360
63
102
}
330
1F
100
AcDbEntity
  8
0
  6
Continuous
 62
     7
 48
0.2000000029802322
100
AcDbTrace
 10
38.48600908353107
 20
-28.36946805096092
 30
0.0
 11
50.48600908353107
 21
-28.36946805096092
 31
0.0
 12
38.48600908353107
 22
-31.36946805096092
 32
0.0
 13
50.48600908353107
 23
-31.36946805096092
 33
0.0
  0
LWPOLYLINE
  5
68
102
{ACAD_XDICTIONARY
360
66
102
}
330
1F
100
AcDbEntity
  8
0
  6
Continuous
 62
     7
 48
0.2000000029802322
370
    25
100
AcDbPolyline
 90
        4
 70
     1
 43
0.0
 10
50.48600908353107
 20
-28.36946805096092
 10
62.48600908353107
 20
-28.36946805096092
 10
62.48600908353107
 20
-31.36946805096092
 10
50.48600908353107
 20
-31.36946805096092
  0
SOLID
  5
6B
102
{ACAD_XDICTIONARY
360
69
102
}
330
1F
100
AcDbEntity
  8
0
  6
Continuous
 62
     7
 48
0.2000000029802322
100
AcDbTrace
 10
62.48600908353107
 20
-28.36946805096092
 30
0.0
 11
74.48600908353106
 21
-28.36946805096092
 31
0.0
 12
62.48600908353107
 22
-31.36946805096092
 32
0.0
 13
74.48600908353106
 23
-31.36946805096092
 33
0.0
  0
LWPOLYLINE
  5
6E
102
{ACAD_XDICTIONARY
360
6C
102
}
330
1F
100
AcDbEntity
  8
0
  6
Continuous
 62
     7
 48
0.2000000029802322
370
    25
100
AcDbPolyline
 90
        4
 70
     1
 43
0.0
 10
74.48600908353106
 20
-28.36946805096092
 10
86.48600908353106
 20
-28.36946805096092
 10
86.48600908353106
 20
-31.36946805096092
 10
74.48600908353106
 20
-31.36946805096092
  0
SOLID
  5
71
102
{ACAD_XDICTIONARY
360
6F
102
}
330
1F
100
AcDbEntity
  8
0
  6
Continuous
 62
     7
 48
0.2000000029802322
100
AcDbTrace
 10
86.48600908353106
 20
-28.36946805096092
 30
0.0
 11
98.48600908353106
 21
-28.36946805096092
 31
0.0
 12
86.48600908353106
 22
-31.36946805096092
 32
0.0
 13
98.48600908353106
 23
-31.36946805096092
 33
0.0
  0
LWPOLYLINE
  5
74
102
{ACAD_XDICTIONARY
360
72
102
}
330
1F
100
AcDbEntity
  8
0
  6
Continuous
 62
     7
 48
0.2000000029802322
370
    25
100
AcDbPolyline
 90
        4
 70
     1
 43
0.0
 10
98.48600908353106
 20
-28.36946805096092
 10
110.4860090835311
 20
-28.36946805096092
 10
110.4860090835311
 20
-31.36946805096092
 10
98.48600908353106
 20
-31.36946805096092
  0
SOLID
  5
77
102
{ACAD_XDICTIONARY
360
75
102
}
330
1F
100
AcDbEntity
  8
0
  6
Continuous
 62
     7
 48
0.2000000029802322
100
AcDbTrace
 10
110.4860090835311
 20
-28.36946805096092
 30
0.0
 11
122.4860090835311
 21
-28.36946805096092
 31
0.0
 12
110.4860090835311
 22
-31.36946805096092
 32
0.0
 13
122.4860090835311
 23
-31.36946805096092
 33
0.0
  0
LWPOLYLINE
  5
7A
102
{ACAD_XDICTIONARY
360
78
102
}
330
1F
100
AcDbEntity
  8
0
  6
Continuous
 62
     7
 48
0.2000000029802322
370
    25
100
AcDbPolyline
 90
        4
 70
     1
 43
0.0
 10
122.4860090835311
 20
-28.36946805096092
 10
134.4860090835311
 20
-28.36946805096092
 10
134.4860090835311
 20
-31.36946805096092
 10
122.4860090835311
 20
-31.36946805096092
  0
TEXT
  5
9E
330
1F
100
AcDbEntity
  8
0
  6
Continuous
 62
     7
100
AcDbText
 10
135.4860090835311
 20
-31.09169027318271
 30
0.0
 40
2.555555555555555
  1
FEET
  7
_TCW_TXTSTY_1
 11
135.4860090835311
 21
-29.81391249540493
 31
0.0
100
AcDbText
 73
     2
  0
LINE
  5
9F
102
{ACAD_REACTORS
330
12A
102
}
330
1F
100
AcDbEntity
  8
0
  6
Continuous
 62
     7
370
     0
100
AcDbLine
 10
5.999999999999999
 20
0.0
 30
0.0
 11
102.0
 21
0.0
 31
0.0
  0
LINE
  5
A2
102
{ACAD_REACTORS
330
12A
102
}
102
{ACAD_XDICTIONARY
360
A0
102
}
330
1F
100
AcDbEntity
  8
0
  6
DASHED
 62
     5
420
      255
 48
0.2000000029802322
370
    25
100
AcDbLine
 10
53.48600908353107
 20
-1.994468050960919
 30
0.0
 11
53.48600908353107
 21
0.0055319490390815
 31
0.0
  0
LINE
  5
A5
102
{ACAD_REACTORS
330
12A
102
}
102
{ACAD_XDICTIONARY
360
A3
102
}
330
1F
100
AcDbEntity
  8
0
  6
DASHED
 62
     5
420
      255
 48
0.2000000029802322
370
    25
100
AcDbLine
 10
54.48600908353107
 20
-1.994468050960919
 30
0.0
 11
54.48600908353107
 21
0.0055319490390815
 31
0.0
  0
LINE
  5
A8
102
{ACAD_REACTORS
330
12A
102
}
102
{ACAD_XDICTIONARY
360
A6
102
}
330
1F
100
AcDbEntity
  8
0
  6
DASHED
 62
     5
420
      255
 48
0.2000000029802322
370
    25
100
AcDbLine
 10
77.98600908353106
 20
-1.994468050960919
 30
0.0
 11
77.98600908353106
 21
0.0055319490390815
 31
0.0
  0
LINE
  5
AB
102
{ACAD_REACTORS
330
12A
102
}
102
{ACAD_XDICTIONARY
360
A9
102
}
330
1F
100
AcDbEntity
  8
0
  6
DASHED
 62
     5
420
      255
 48
0.2000000029802322
370
    25
100
AcDbLine
 10
29.98600908353107
 20
-1.994468050960919
 30
0.0
 11
29.98600908353107
 21
0.0055319490390815
 31
0.0
  0
LINE
  5
AE
102
{ACAD_REACTORS
330
12A
102
}
102
{ACAD_XDICTIONARY
360
AC
102
}
330
1F
100
AcDbEntity
  8
0
  6
Continuous
 62
     5
420
      255
 48
0.2000000029802322
370
    25
100
AcDbLine
 10
101.9860090835311
 20
0.0055319490390815
 30
0.0
 11
5.986009083531066
 21
0.0055319490390815
 31
0.0
  0
CIRCLE
  5
B1
102
{ACAD_REACTORS
330
12A
102
}
102
{ACAD_XDICTIONARY
360
AF
102
}
330
1F
100
AcDbEntity
  8
0
  6
Continuous
 62
     5
420
      255
 48
0.2000000029802322
370
    25
100
AcDbCircle
 10
37.66600908353107
 20
-6.994468050960919
 30
0.0
 40
10.32
  0
CIRCLE
  5
B4
102
{ACAD_REACTORS
330
12A
102
}
102
{ACAD_XDICTIONARY
360
B2
102
}
330
1F
100
AcDbEntity
  8
0
  6
Continuous
 62
     5
420
      255
 48
0.2000000029802322
370
    25
100
AcDbCircle
 10
37.66600908353107
 20
-6.994468050960919
 30
0.0
 40
6.5
  0
CIRCLE
  5
B7
102
{ACAD_REACTORS
330
12A
102
}
102
{ACAD_XDICTIONARY
360
B5
102
}
330
1F
100
AcDbEntity
  8
0
  6
Continuous
 62
     5
420
      255
 48
0.2000000029802322
370
    25
100
AcDbCircle
 10
37.66600908353107
 20
-6.994468050960919
 30
0.0
 40
5.75
  0
LINE
  5
BA
102
{ACAD_REACTORS
330
12A
102
}
102
{ACAD_XDICTIONARY
360
B8
102
}
330
1F
100
AcDbEntity
  8
0
  6
Continuous
 62
     5
420
      255
 48
0.2000000029802322
370
    25
100
AcDbLine
 10
141.9860090835311
 20
-3.994468050960919
 30
0.0
 11
85.98600908353106
 21
-3.994468050960919
 31
0.0
  0
LINE
  5
BD
102
{ACAD_REACTORS
330
12A
102
}
102
{ACAD_XDICTIONARY
360
BB
102
}
330
1F
100
AcDbEntity
  8
0
  6
Continuous
 62
     5
420
      255
 48
0.2000000029802322
370
    25
100
AcDbLine
 10
85.98600908353106
 20
-3.994468050960919
 30
0.0
 11
85.98600908353106
 21
-1.994468050960919
 31
0.0
  0
LINE
  5
C0
102
{ACAD_REACTORS
330
12A
102
}
102
{ACAD_XDICTIONARY
360
BE
102
}
330
1F
100
AcDbEntity
  8
0
  6
Continuous
 62
     5
420
      255
 48
0.2000000029802322
370
    25
100
AcDbLine
 10
147.0529808484551
 20
-3.976599999313919
 30
0.0
 11
136.8498312421551
 21
-3.976599999313919
 31
0.0
  0
LINE
  5
C3
102
{ACAD_REACTORS
330
12A
102
}
102
{ACAD_XDICTIONARY
360
C1
102
}
330
1F
100
AcDbEntity
  8
0
  6
Continuous
 62
     5
420
      255
 48
0.2000000029802322
370
    25
100
AcDbLine
 10
136.8498312421551
 20
-3.976599999313919
 30
0.0
 11
136.8498312421551
 21
-1.718725983565918
 31
0.0
  0
ARC
  5
C6
102
{ACAD_REACTORS
330
12A
102
}
102
{ACAD_XDICTIONARY
360
C4
102
}
330
1F
100
AcDbEntity
  8
0
  6
Continuous
 62
     5
420
      255
 48
0.2000000029802322
370
    25
100
AcDbCircle
 10
145.6526054794851
 20
-2.885541860119918
 30
0.0
 40
1.174880215390016
100
AcDbArc
 50
314.7239359370163
 51
96.71697832631341
  0
LINE
  5
C9
102
{ACAD_REACTORS
330
12A
102
}
102
{ACAD_XDICTIONARY
360
C7
102
}
330
1F
100
AcDbEntity
  8
0
  6
Continuous
 62
     5
420
      255
 48
0.2000000029802322
370
    25
100
AcDbLine
 10
147.0529808484551
 20
-3.976599999313919
 30
0.0
 11
147.0529808484551
 21
-3.720300786715917
 31
0.0
  0
LINE
  5
CC
102
{ACAD_REACTORS
330
12A
102
}
102
{ACAD_XDICTIONARY
360
CA
102
}
330
1F
100
AcDbEntity
  8
0
  6
Continuous
 62
     5
420
      255
 48
0.2000000029802322
370
    25
100
AcDbLine
 10
143.5624296673521
 20
-2.597466141045917
 30
0.0
 11
142.8667603760141
 21
-2.597466141045917
 31
0.0
  0
LINE
  5
CF
102
{ACAD_REACTORS
330
12A
102
}
102
{ACAD_XDICTIONARY
360
CD
102
}
330
1F
100
AcDbEntity
  8
0
  6
Continuous
 62
     5
420
      255
 48
0.2000000029802322
370
    25
100
AcDbLine
 10
143.5624296673521
 20
-3.293135432384918
 30
0.0
 11
142.8667603760141
 21
-3.293135432384918
 31
0.0
  0
LINE
  5
D2
102
{ACAD_REACTORS
330
12A
102
}
102
{ACAD_XDICTIONARY
360
D0
102
}
330
1F
100
AcDbEntity
  8
0
  6
Continuous
 62
     5
420
      255
 48
0.2000000029802322
370
    25
100
AcDbLine
 10
142.8667603760141
 20
-3.207702361518919
 30
0.0
 11
142.0978627382181
 21
-3.207702361518919
 31
0.0
  0
LINE
  5
D5
102
{ACAD_REACTORS
330
12A
102
}
102
{ACAD_XDICTIONARY
360
D3
102
}
330
1F
100
AcDbEntity
  8
0
  6
Continuous
 62
     5
420
      255
 48
0.2000000029802322
370
    25
100
AcDbLine
 10
142.8667603760141
 20
-2.68289921191192
 30
0.0
 11
142.0978627382181
 21
-2.68289921191192
 31
0.0
  0
LINE
  5
D8
102
{ACAD_REACTORS
330
12A
102
}
102
{ACAD_XDICTIONARY
360
D6
102
}
330
1F
100
AcDbEntity
  8
0
  6
Continuous
 62
     5
420
      255
 48
0.2000000029802322
370
    25
100
AcDbLine
 10
143.5624296673521
 20
-3.293135432384918
 30
0.0
 11
143.5624296673521
 21
-2.597466141045917
 31
0.0
  0
LINE
  5
DB
102
{ACAD_REACTORS
330
12A
102
}
102
{ACAD_XDICTIONARY
360
D9
102
}
330
1F
100
AcDbEntity
  8
0
  6
Continuous
 62
     5
420
      255
 48
0.2000000029802322
370
    25
100
AcDbLine
 10
142.8667603760141
 20
-3.293135432384918
 30
0.0
 11
142.8667603760141
 21
-2.597466141045917
 31
0.0
  0
LINE
  5
DE
102
{ACAD_REACTORS
330
12A
102
}
102
{ACAD_XDICTIONARY
360
DC
102
}
330
1F
100
AcDbEntity
  8
0
  6
Continuous
 62
     5
420
      255
 48
0.2000000029802322
370
    25
100
AcDbLine
 10
142.0978627382181
 20
-3.207702361518919
 30
0.0
 11
142.0978627382181
 21
-2.68289921191192
 31
0.0
  0
LWPOLYLINE
  5
E1
102
{ACAD_REACTORS
330
12A
102
}
102
{ACAD_XDICTIONARY
360
DF
102
}
330
1F
100
AcDbEntity
  8
0
  6
Continuous
 62
     5
420
      255
 48
0.2000000029802322
370
    25
100
AcDbPolyline
 90
      313
 70
   128
 43
0.0
 10
141.7561304547541
 20
-1.706521259156919
 10
141.7611247476983
 20
-1.685466307156651
 10
141.7652866584851
 20
-1.664142344178901
 10
141.7686161871146
 20
-1.642598281310484
 10
141.7711133335868
 20
-1.620883029638217
 10
141.7727780979016
 20
-1.599045500248913
 10
141.7736104800589
 20
-1.577134604229386
 10
141.7736104800589
 20
-1.555199252666451
 10
141.7727780979015
 20
-1.533288356646925
 10
141.7711133335868
 20
-1.51145082725762
 10
141.7686161871147
 20
-1.489735575585352
 10
141.7652866584852
 20
-1.468191512716936
 10
141.7611247476983
 20
-1.446867549739187
 10
141.7561304547541
 20
-1.425812597738918
 10
141.7409816539853
 20
-1.365682519957629
 10
141.7262450014161
 20
-1.305030798503345
 10
141.7115578498906
 20
-1.244087105768599
 10
141.6965575522531
 20
-1.183081114145925
 10
141.6808814613475
 20
-1.122242496027854
 10
141.6641669300179
 20
-1.061800923806919
 10
141.6460513111085
 20
-1.001986069875654
 10
141.6261719574634
 20
-0.9430276066265887
 10
141.6041662219267
 20
-0.8851552064522575
 10
141.5796714573426
 20
-0.8285985417451929
 10
141.552325016555
 20
-0.7735872848979268
 10
141.5217642524081
 20
-0.7203511083029921
 10
141.4876265177461
 20
-0.6691196843529212
 10
141.4546252598798
 20
-0.6254255542728074
 10
141.419280135958
 20
-0.5829271640724749
 10
141.3817247678596
 20
-0.5418335884040132
 10
141.3420927774635
 20
-0.5023539019195117
 10
141.3005177866484
 20
-0.4646971792710594
 10
141.257133417293
 20
-0.4290724951107452
 10
141.2120732912764
 20
-0.3956889240906588
 10
141.1654710304772
 20
-0.3647555408628893
 10
141.1174602567743
 20
-0.3364814200795258
 10
141.0681745920465
 20
-0.3110756363926575
 10
141.0177476581727
 20
-0.2887472644543737
 10
140.9663130770316
 20
-0.2697053789167636
 10
140.9140044705021
 20
-0.2541590544319163
 10
140.8482099270974
 20
-0.2398630747892624
 10
140.7818183963608
 20
-0.2306749302138203
 10
140.7149108360497
 20
-0.2259794136193695
 10
140.6475682039219
 20
-0.22516131791969
 10
140.579871457735
 20
-0.2276054360285613
 10
140.5119015552464
 20
-0.232696560859763
 10
140.4437394542139
 20
-0.2398194853270749
 10
140.3754661123951
 20
-0.2483590023442765
 10
140.3071624875475
 20
-0.2576999048251478
 10
140.2389095374288
 20
-0.2672269856834681
 10
140.1707882197966
 20
-0.2763250378330173
 10
140.1028794924085
 20
-0.284378854187575
 10
140.0352643130221
 20
-0.290773227660921
 10
139.9608953610086
 20
-0.2971278601187737
 10
139.8866049579915
 20
-0.3042826337094067
 10
139.8123808533628
 20
-0.3121145459481209
 10
139.7382107965145
 20
-0.3205005943502173
 10
139.6640825368386
 20
-0.3293177764309967
 10
139.589983823727
 20
-0.3384430897057598
 10
139.5159024065717
 20
-0.3477535316898074
 10
139.4418260347649
 20
-0.3571260998984405
 10
139.3677424576983
 20
-0.3664377918469598
 10
139.2936394247641
 20
-0.3755656050506664
 10
139.2195046853541
 20
-0.3843865370248607
 10
139.1453259888604
 20
-0.392777585284844
 10
139.0710910846751
 20
-0.4006157473459169
 10
138.9970000784163
 20
-0.4079906652663156
 10
138.922886622625
 20
-0.4151305028067341
 10
138.8487533778486
 20
-0.4220628662872398
 10
138.7746030046345
 20
-0.4288153620279003
 10
138.7004381635301
 20
-0.4354155963487829
 10
138.6262615150828
 20
-0.4418911755699547
 10
138.5520757198399
 20
-0.4482697060114834
 10
138.4778834383488
 20
-0.4545787939934361
 10
138.4036873311569
 20
-0.4608460458358803
 10
138.3294900588116
 20
-0.4670990678588835
 10
138.2552942818603
 20
-0.4733654663825129
 10
138.1811026608503
 20
-0.4796728477268358
 10
138.1069178563291
 20
-0.4860488182119198
 10
138.0834598985979
 20
-0.4882972564852517
 10
138.0600015806355
 20
-0.4909058288492516
 10
138.0365424249533
 20
-0.4937594628990022
 10
138.013081954063
 20
-0.4967430862295861
 10
137.9896196904762
 20
-0.4997416264360854
 10
137.9661551567044
 20
-0.5026400111135824
 10
137.9426878752591
 20
-0.5053231678571595
 10
137.919217368652
 20
-0.5076760242618993
 10
137.8957431593946
 20
-0.509583507922884
 10
137.8722647699984
 20
-0.5109305464351961
 10
137.848781722975
 20
-0.5116020673939177
 10
137.8252935408361
 20
-0.5114829983941316
 10
137.8017997460931
 20
-0.5104582670309199
 10
137.7951820223996
 20
-0.5095691144358254
 10
137.7888234156669
 20
-0.5078393698882246
 10
137.7826980200857
 20
-0.5053680063195646
 10
137.7767799298473
 20
-0.5022539966612916
 10
137.7710432391426
 20
-0.4985963138448521
 10
137.7654620421624
 20
-0.4944939308016925
 10
137.760010433098
 20
-0.4900458204632594
 10
137.7546625061402
 20
-0.4853509557609992
 10
137.7493923554801
 20
-0.4805083096263585
 10
137.7441740753086
 20
-0.4756168549907838
 10
137.7389817598168
 20
-0.4707755647857214
 10
137.7337895031956
 20
-0.4660834119426178
 10
137.7285713996361
 20
-0.4616393693929197
 10
137.7234188946429
 20
-0.4574274504028104
 10
137.718253446472
 20
-0.4531893356976283
 10
137.7130994205455
 20
-0.4489102511186327
 10
137.7079811822856
 20
-0.4445754225070829
 10
137.7029230971144
 20
-0.4401700757042377
 10
137.6979495304539
 20
-0.4356794365513558
 10
137.6930848477263
 20
-0.4310887308896964
 10
137.6883534143536
 20
-0.4263831845605187
 10
137.6837795957581
 20
-0.4215480234050812
 10
137.6793877573618
 20
-0.4165684732646435
 10
137.6752022645867
 20
-0.4114297599804641
 10
137.6712474828551
 20
-0.4061171093938022
 10
137.6675477775891
 20
-0.4006157473459169
 10
137.6644318711073
 20
-0.3955356160818251
 10
137.6614693451421
 20
-0.3903215549710425
 10
137.6586746530333
 20
-0.3849849622234223
 10
137.6560622481206
 20
-0.3795372360488183
 10
137.6536465837436
 20
-0.3739897746570837
 10
137.6514421132418
 20
-0.3683539762580719
 10
137.649463289955
 20
-0.3626412390616364
 10
137.6477245672229
 20
-0.3568629612776306
 10
137.6462403983851
 20
-0.3510305411159079
 10
137.6450252367813
 20
-0.3451553767863218
 10
137.644093535751
 20
-0.3392488664987255
 10
137.6434597486341
 20
-0.3333224084629727
 10
137.64313832877
 20
-0.3273874008889166
 10
137.6414605002833
 20
-0.2635623766995017
 10
137.6399051463993
 20
-0.1997230369210933
 10
137.6385151298847
 20
-0.1358726006815268
 10
137.6373333135065
 20
-0.0720142871086375
 10
137.6364025600317
 20
-0.0081513153302606
 10
137.6357657322268
 20
0.0557130955257688
 10
137.6354656928589
 20
0.1195757263316153
 10
137.6355453046947
 20
0.1834333579594437
 10
137.6360474305012
 20
0.2472827712814187
 10
137.6370149330451
 20
0.3111207471697052
 10
137.6384906750933
 20
0.3749440664964678
 10
137.6405175194127
 20
0.4387495101338714
 10
137.64313832877
 20
0.5025338589540809
 10
137.6442519182395
 20
0.5207312522878688
 10
137.6459009528881
 20
0.5388990233208426
 10
137.6480594799555
 20
0.5570288999897272
 10
137.6507015466815
 20
0.575112610231247
 10
137.6538012003057
 20
0.5931418819821271
 10
137.657332488068
 20
0.6111084431790916
 10
137.661269457208
 20
0.6290040217588654
 10
137.6655861549656
 20
0.646820345658173
 10
137.6702566285805
 20
0.6645491428137392
 10
137.6752549252923
 20
0.6821821411622887
 10
137.6805550923409
 20
0.6997110686405459
 10
137.6861311769659
 20
0.7171276531852355
 10
137.6919572264071
 20
0.7344236227330825
 10
137.695699905408
 20
0.7447311691676498
 10
137.6997847943033
 20
0.754942617165782
 10
137.7042044845184
 20
0.7650423891697442
 10
137.7089515674789
 20
0.7750149076218
 10
137.7140186346102
 20
0.7848445949642137
 10
137.7193982773376
 20
0.7945158736392488
 10
137.7250830870869
 20
0.8040131660891696
 10
137.7310656552833
 20
0.8133208947562404
 10
137.7373385733523
 20
0.822423482082725
 10
137.7438944327194
 20
0.8313053505108876
 10
137.7507258248101
 20
0.839950922482992
 10
137.7578253410499
 20
0.8483446204413023
 10
137.7651855728641
 20
0.8564708668280829
 10
137.7722757588875
 20
0.8637701897600102
 10
137.77964584637
 20
0.8708421765503166
 10
137.7872812821212
 20
0.8776730837283292
 10
137.7951675129508
 20
0.8842491678233744
 10
137.8032899856686
 20
0.8905566853647785
 10
137.8116341470842
 20
0.8965818928818672
 10
137.8201854440073
 20
0.9023110469039672
 10
137.8289293232478
 20
0.9077304039604052
 10
137.8378512316152
 20
0.9128262205805071
 10
137.8469366159194
 20
0.9175847532935995
 10
137.8561709229699
 20
0.9219922586290082
 10
137.8655395995766
 20
0.9260349931160601
 10
137.8750280925491
 20
0.9296992132840813
 10
137.8867150989313
 20
0.9336266120468989
 10
137.898554389288
 20
0.9370063651392039
 10
137.9105279642636
 20
0.9398946600686972
 10
137.9226178245029
 20
0.9423476843430793
 10
137.9348059706503
 20
0.9444216254700506
 10
137.9470744033503
 20
0.9461726709573112
 10
137.9594051232477
 20
0.9476570083125619
 10
137.971780130987
 20
0.9489308250435031
 10
137.9841814272127
 20
0.9500503086578351
 10
137.9965910125696
 20
0.9510716466632587
 10
138.008990887702
 20
0.9520510265674738
 10
138.0213630532546
 20
0.9530446358781812
 10
138.0336895098721
 20
0.9541086621030814
 10
138.2279522269424
 20
0.9718619748169723
 10
138.4222062069911
 20
0.9897499071396864
 10
138.6164571986843
 20
1.007696905381019
 10
138.8107109506884
 20
1.025627415850764
 10
139.0049732116694
 20
1.043465884858715
 10
139.1992497302934
 20
1.061136758714668
 10
139.3935462552268
 20
1.078564483728415
 10
139.5878685351356
 20
1.095673506209752
 10
139.7822223186861
 20
1.112388272468473
 10
139.9766133545444
 20
1.128633228814372
 10
140.1710473913768
 20
1.144332821557243
 10
140.3655301778493
 20
1.159411497006881
 10
140.5600674626281
 20
1.17379370147308
 10
140.6003507509579
 20
1.176386674348322
 10
140.6406667917107
 20
1.17839510399915
 10
140.6810105698947
 20
1.17986054890153
 10
140.7213770705181
 20
1.180824567531428
 10
140.7617612785888
 20
1.181328718364808
 10
140.8021581791151
 20
1.181414559877636
 10
140.842562757105
 20
1.181123650545879
 10
140.8829699975666
 20
1.1804975488455
 10
140.923374885508
 20
1.179577813252466
 10
140.9637724059374
 20
1.178406002242741
 10
141.0041575438628
 20
1.177023674292292
 10
141.0445252842923
 20
1.175472387877083
 10
141.0848706122341
 20
1.17379370147308
 10
141.1103765166682
 20
1.172692356542692
 10
141.1359207375467
 20
1.171531282853249
 10
141.1614856599003
 20
1.170248809614798
 10
141.1870536687596
 20
1.168783266037387
 10
141.2126071491551
 20
1.16707298133106
 10
141.2381284861173
 20
1.165056284705865
 10
141.2636000646768
 20
1.162671505371848
 10
141.2890042698642
 20
1.159856972539055
 10
141.3143234867101
 20
1.156551015417533
 10
141.3395401002449
 20
1.152691963217329
 10
141.3646364954993
 20
1.148218145148489
 10
141.3895950575039
 20
1.143067890421058
 10
141.4143981712891
 20
1.137179528245085
 10
141.4492055083332
 20
1.128139190486051
 10
141.4839517049041
 20
1.118687564405519
 10
141.5186075430089
 20
1.108792983788878
 10
141.553143804655
 20
1.098423782421517
 10
141.5875312718498
 20
1.087548294088825
 10
141.6217407266003
 20
1.076134852576192
 10
141.655742950914
 20
1.064151791669006
 10
141.6895087267982
 20
1.051567445152656
 10
141.72300883626
 20
1.038350146812533
 10
141.7562140613068
 20
1.024468230434025
 10
141.7890951839459
 20
1.00989002980252
 10
141.8216229861846
 20
0.9945838787034098
 10
141.8537682500301
 20
0.9785181109220815
 10
141.8840865431203
 20
0.9623323027803032
 10
141.9139364071926
 20
0.9453088247648159
 10
141.9433477072313
 20
0.9275156997546216
 10
141.9723503082208
 20
0.9090209506287217
 10
142.0009740751452
 20
0.8898926002661175
 10
142.0292488729888
 20
0.8701986715458097
 10
142.057204566736
 20
0.8500071873468003
 10
142.084871021371
 20
0.8293861705480903
 10
142.1122781018781
 20
0.8084036440286813
 10
142.1394556732415
 20
0.7871276306675743
 10
142.1664336004457
 20
0.7656261533437708
 10
142.1932417484747
 20
0.7439672349362723
 10
142.2199099823131
 20
0.7222188983240798
 10
142.2450880863616
 20
0.7015560173592117
 10
142.270217492717
 20
0.6807432755448277
 10
142.2952338698327
 20
0.659736593206028
 10
142.320072886162
 20
0.638491890667912
 10
142.3446702101584
 20
0.6169650882555797
 10
142.3689615102752
 20
0.5951121062941302
 10
142.3928824549658
 20
0.5728888651086635
 10
142.4163687126836
 20
0.5502512850242791
 10
142.439355951882
 20
0.5271552863660768
 10
142.4617798410144
 20
0.5035567894591563
 10
142.483576048534
 20
0.4794117146286168
 10
142.5046802428945
 20
0.4546759821995585
 10
142.5250280925491
 20
0.4293055124970806
 10
142.5536732214825
 20
0.3912425068085032
 10
142.5812502319662
 20
0.3524332942808122
 10
142.6079005719791
 20
0.3129765464447642
 10
142.6337656895005
 20
0.272970934831116
 10
142.6589870325092
 20
0.2325151309706238
 10
142.6837060489842
 20
0.1917078063940439
 10
142.7080641869046
 20
0.1506476326321331
 10
142.7322028942494
 20
0.1094332812156479
 10
142.7562636189975
 20
0.0681634236753445
 10
142.7803878091281
 20
0.0269367315419795
 10
142.80471691262
 20
-0.0141481236536905
 10
142.8293923774523
 20
-0.0549924703809093
 10
142.854555651604
 20
-0.0954976371089202
 10
142.8854423308885
 20
-0.1443764006500763
 10
142.9163506414484
 20
-0.1932414867251276
 10
142.9472789813093
 20
-0.2420939043746795
 10
142.9782257484969
 20
-0.2909346626393376
 10
143.0091893410369
 20
-0.3397647705597071
 10
143.0401681569548
 20
-0.3885852371763933
 10
143.0711605942762
 20
-0.4373970715300018
 10
143.1021650510269
 20
-0.4862012826611377
 10
143.1331799252325
 20
-0.5349988796104066
 10
143.1642036149186
 20
-0.5837908714184137
 10
143.1952345181107
 20
-0.6325782671257645
 10
143.2262710328347
 20
-0.6813620757730644
 10
143.2573115571161
 20
-0.7301433064009188
 10
143.2945373739941
 20
-0.7893608812156773
 10
143.3363128839539
 20
-0.8570098222751362
 10
143.3818125680958
 20
-0.931556070676151
 10
143.43021090752
 20
-1.011465567515576
 10
143.4806823833266
 20
-1.095204253890267
 10
143.5324014766157
 20
-1.181238070897078
 10
143.5845426684874
 20
-1.268032959632863
 10
143.636280440042
 20
-1.354054861194478
 10
143.6867892723796
 20
-1.437769716678778
 10
143.7352436466004
 20
-1.517643467182617
 10
143.7808180438045
 20
-1.59214205380285
 10
143.822686945092
 20
-1.659731417636332
 10
143.8600248315631
 20
-1.718877499779918
  0
CIRCLE
  5
E4
102
{ACAD_REACTORS
330
12A
102
}
102
{ACAD_XDICTIONARY
360
E2
102
}
330
1F
100
AcDbEntity
  8
0
  6
Continuous
 62
     5
420
      255
 48
0.2000000029802322
370
    25
100
AcDbCircle
 10
142.7080989586911
 20
-1.438017322148919
 30
0.0
 40
0.404416761653005
  0
LINE
  5
E7
102
{ACAD_REACTORS
330
12A
102
}
102
{ACAD_XDICTIONARY
360
E5
102
}
330
1F
100
AcDbEntity
  8
0
  6
Continuous
 62
     5
420
      255
 48
0.2000000029802322
370
    25
100
AcDbLine
 10
147.0529808484551
 20
-3.720300786715917
 30
0.0
 11
136.8498312421551
 21
-3.720300786715917
 31
0.0
  0
LINE
  5
EA
102
{ACAD_REACTORS
330
12A
102
}
102
{ACAD_XDICTIONARY
360
E8
102
}
330
1F
100
AcDbEntity
  8
0
  6
DASHED
 62
     5
420
      255
 48
0.2000000029802322
370
    25
100
AcDbLine
 10
141.9860090835311
 20
-1.994468050960919
 30
0.0
 11
136.8521508158141
 21
-1.994468050960919
 31
0.0
  0
ARC
  5
ED
102
{ACAD_REACTORS
330
12A
102
}
102
{ACAD_XDICTIONARY
360
EB
102
}
330
1F
100
AcDbEntity
  8
0
  6
Continuous
 62
     5
420
      255
 48
0.2000000029802322
370
    25
100
AcDbCircle
 10
142.8895429567841
 20
-0.9708460037169218
 30
0.0
 40
0.1968503937010055
100
AcDbArc
 50
27.75854060106895
 51
90.0
  0
LINE
  5
F0
102
{ACAD_REACTORS
330
12A
102
}
102
{ACAD_XDICTIONARY
360
EE
102
}
330
1F
100
AcDbEntity
  8
0
  6
Continuous
 62
     5
420
      255
 48
0.2000000029802322
370
    25
100
AcDbLine
 10
143.0637394572531
 20
-0.8791636350489185
 30
0.0
 11
143.5056143775251
 21
-1.718725983565918
 31
0.0
  0
LINE
  5
F3
102
{ACAD_REACTORS
330
12A
102
}
102
{ACAD_XDICTIONARY
360
F1
102
}
330
1F
100
AcDbEntity
  8
0
  6
Continuous
 62
     5
420
      255
 48
0.2000000029802322
370
    25
100
AcDbLine
 10
142.0096311307751
 20
-1.718725983565918
 30
0.0
 11
142.0096311307751
 21
-0.9708460037169218
 31
0.0
  0
ARC
  5
F6
102
{ACAD_REACTORS
330
12A
102
}
102
{ACAD_XDICTIONARY
360
F4
102
}
330
1F
100
AcDbEntity
  8
0
  6
Continuous
 62
     5
420
      255
 48
0.2000000029802322
370
    25
100
AcDbCircle
 10
142.2064815244761
 20
-0.9708460037169218
 30
0.0
 40
0.1968503937009842
100
AcDbArc
 50
90.0
 51
180.0
  0
LINE
  5
F9
102
{ACAD_REACTORS
330
12A
102
}
102
{ACAD_XDICTIONARY
360
F7
102
}
330
1F
100
AcDbEntity
  8
0
  6
Continuous
 62
     5
420
      255
 48
0.2000000029802322
370
    25
100
AcDbLine
 10
142.2064815244761
 20
-0.7739956100159162
 30
0.0
 11
142.8895429567841
 21
-0.7739956100159162
 31
0.0
  0
LINE
  5
FC
102
{ACAD_REACTORS
330
12A
102
}
102
{ACAD_XDICTIONARY
360
FA
102
}
330
1F
100
AcDbEntity
  8
0
  6
Continuous
 62
     5
420
      255
 48
0.2000000029802322
370
    25
100
AcDbLine
 10
145.7900252586641
 20
-1.718725983565918
 30
0.0
 11
143.5056143775251
 21
-1.718725983565918
 31
0.0
  0
LINE
  5
FF
102
{ACAD_REACTORS
330
12A
102
}
102
{ACAD_XDICTIONARY
360
FD
102
}
330
1F
100
AcDbEntity
  8
0
  6
Continuous
 62
     5
420
      255
 48
0.2000000029802322
370
    25
100
AcDbLine
 10
142.0096311307751
 20
-1.718725983565918
 30
0.0
 11
136.8498312421551
 21
-1.718725983565918
 31
0.0
  0
LINE
  5
102
102
{ACAD_REACTORS
330
12A
102
}
102
{ACAD_XDICTIONARY
360
100
102
}
330
1F
100
AcDbEntity
  8
0
  6
DASHDOT
 62
     5
420
      255
 48
0.2000000029802322
370
    25
100
AcDbLine
 10
140.9860090835311
 20
-3.720300786715917
 30
0.0
 11
140.9860090835311
 21
-1.718725983565918
 31
0.0
  0
LINE
  5
105
102
{ACAD_REACTORS
330
12A
102
}
102
{ACAD_XDICTIONARY
360
103
102
}
330
1F
100
AcDbEntity
  8
0
  6
DASHDOT
 62
     5
420
      255
 48
0.2000000029802322
370
    25
100
AcDbLine
 10
137.4427019969171
 20
-3.720300786715917
 30
0.0
 11
137.4427019969171
 21
-1.718725983565918
 31
0.0
  0
LINE
  5
108
102
{ACAD_REACTORS
330
12A
102
}
102
{ACAD_XDICTIONARY
360
106
102
}
330
1F
100
AcDbEntity
  8
0
  6
DASHDOT
 62
     5
420
      255
 48
0.2000000029802322
370
    25
100
AcDbLine
 10
145.513568138649
 20
-3.976599999313919
 30
0.0
 11
145.513568138649
 21
-1.718725983565918
 31
0.0
  0
LINE
  5
10B
102
{ACAD_REACTORS
330
12A
102
}
102
{ACAD_XDICTIONARY
360
109
102
}
330
1F
100
AcDbEntity
  8
0
  6
DASHDOT
 62
     5
420
      255
 48
0.2000000029802322
370
    25
100
AcDbLine
 10
140.7889946878851
 20
-2.781869625763917
 30
0.0
 11
146.8229027017071
 21
-2.781869625763917
 31
0.0
  0
LINE
  5
10E
102
{ACAD_REACTORS
330
12A
102
}
102
{ACAD_XDICTIONARY
360
10C
102
}
330
1F
100
AcDbEntity
  8
0
  6
DASHED
 62
     5
420
      255
 48
0.2000000029802322
370
    25
100
AcDbLine
 10
141.9860090835311
 20
-3.994468050960919
 30
0.0
 11
141.9860090835311
 21
-1.994468050960919
 31
0.0
  0
LINE
  5
111
102
{ACAD_REACTORS
330
12A
102
}
102
{ACAD_XDICTIONARY
360
10F
102
}
330
1F
100
AcDbEntity
  8
0
  6
Continuous
 62
     5
420
      255
 48
0.2000000029802322
370
    25
100
AcDbLine
 10
136.8498312421551
 20
-1.994468050960919
 30
0.0
 11
5.986009083531066
 21
-1.994468050960919
 31
0.0
  0
LINE
  5
114
102
{ACAD_REACTORS
330
12A
102
}
102
{ACAD_XDICTIONARY
360
112
102
}
330
1F
100
AcDbEntity
  8
0
  6
Continuous
 62
     5
420
      255
 48
0.2000000029802322
370
    25
100
AcDbLine
 10
5.986009083531066
 20
-1.994468050960919
 30
0.0
 11
5.986009083531066
 21
0.0055319490390815
 31
0.0
  0
LINE
  5
117
102
{ACAD_REACTORS
330
12A
102
}
102
{ACAD_XDICTIONARY
360
115
102
}
330
1F
100
AcDbEntity
  8
0
  6
Continuous
 62
     5
420
      255
 48
0.2000000029802322
370
    25
100
AcDbLine
 10
101.9860090835311
 20
-1.994468050960919
 30
0.0
 11
101.9860090835311
 21
0.0055319490390815
 31
0.0
  0
LINE
  5
11A
102
{ACAD_REACTORS
330
12A
102
}
102
{ACAD_XDICTIONARY
360
118
102
}
330
1F
100
AcDbEntity
  8
0
  6
Continuous
 62
     5
420
      255
 48
0.2000000029802322
370
    25
100
AcDbLine
 10
48.66600908353107
 20
-3.994468050960919
 30
0.0
 11
26.66600908353107
 21
-3.994468050960919
 31
0.0
  0
LINE
  5
11D
102
{ACAD_REACTORS
330
12A
102
}
102
{ACAD_XDICTIONARY
360
11B
102
}
330
1F
100
AcDbEntity
  8
0
  6
Continuous
 62
     5
420
      255
 48
0.2000000029802322
370
    25
100
AcDbLine
 10
26.6468176228951
 20
-3.94572499168018
 30
0.0
 11
26.6468176228951
 21
-1.94572499168018
 31
0.0
  0
LINE
  5
120
102
{ACAD_REACTORS
330
12A
102
}
102
{ACAD_XDICTIONARY
360
11E
102
}
330
1F
100
AcDbEntity
  8
0
  6
Continuous
 62
     5
420
      255
 48
0.2000000029802322
370
    25
100
AcDbLine
 10
48.69596876009044
 20
-4.000573626349819
 30
0.0
 11
48.69596876009044
 21
-2.000573626349819
 31
0.0
  0
LWPOLYLINE
  5
123
102
{ACAD_REACTORS
330
12A
102
}
102
{ACAD_XDICTIONARY
360
121
102
}
330
1F
100
AcDbEntity
  8
0
  6
Continuous
 62
     5
420
      255
 48
0.2000000029802322
370
    25
100
AcDbPolyline
 90
        4
 70
     1
 43
0.0
 10
36.66600908353107
 20
-5.994468050960919
 10
38.66600908353107
 20
-5.994468050960919
 10
38.66600908353107
 20
-7.994468050960919
 10
36.66600908353107
 20
-7.994468050960919
  0
ARC
  5
126
102
{ACAD_REACTORS
330
12A
102
}
102
{ACAD_XDICTIONARY
360
124
102
}
330
1F
100
AcDbEntity
  8
0
  6
Continuous
 62
     5
420
      255
 48
0.2000000029802322
370
    25
100
AcDbCircle
 10
37.66600908353107
 20
18.10275417126109
 30
0.0
 40
24.09722222222199
100
AcDbArc
 50
246.491783426768
 51
293.508216573232
  0
ARC
  5
129
102
{ACAD_REACTORS
330
12A
102
}
102
{ACAD_XDICTIONARY
360
127
102
}
330
1F
100
AcDbEntity
  8
0
  6
Continuous
 62
     5
420
      255
 48
0.2000000029802322
370
    25
100
AcDbCircle
 10
37.66600908353107
 20
18.10275417126109
 30
0.0
 40
23.847222222222
100
AcDbArc
 50
247.913338496839
 51
292.08666150316
  0
LINE
  5
12D
330
1F
100
AcDbEntity
  8
0
  6
Continuous
 62
     7
370
     0
100
AcDbLine
 10
87.72231789294565
 20
47.7210970938895
 30
0.0
 11
87.72231789294565
 21
47.7210970938895
 31
0.0
  0
LINE
  5
12E
330
1F
100
AcDbEntity
  8
0
  6
Continuous
 62
     7
370
     0
100
AcDbLine
 10
36.99999999999999
 20
45.9498347226628
 30
0.0
 11
36.99999999999999
 21
46.21794366203136
 31
0.0
  0
LINE
  5
12F
330
1F
100
AcDbEntity
  8
BODY
  6
Continuous
 62
     7
370
     0
100
AcDbLine
 10
102.0
 20
-0.0010970938895021
 30
0.0
 11
114.0
 21
11.9989029061105
 31
0.0
  0
LINE
  5
130
330
1F
100
AcDbEntity
  8
BODY
  6
Continuous
 62
     7
370
     0
100
AcDbLine
 10
87.72231789294565
 20
47.7210970938895
 30
0.0
 11
114.0
 21
35.46761268880749
 31
0.0
  0
LINE
  5
131
330
1F
100
AcDbEntity
  8
BODY
  6
Continuous
 62
     7
370
     0
100
AcDbLine
 10
114.0
 20
35.46761268880749
 30
0.0
 11
114.0
 21
11.9989029061105
 31
0.0
  0
LINE
  5
132
330
1F
100
AcDbEntity
  8
BODY
  6
Continuous
 62
     7
370
     0
100
AcDbLine
 10
87.72231789294565
 20
47.7210970938895
 30
0.0
 11
37.00467558354739
 21
45.94999799763809
 31
0.0
  0
LINE
  5
133
330
1F
100
AcDbEntity
  8
BODY
  6
Continuous
 62
     7
370
     0
100
AcDbLine
 10
5.999999999999993
 20
-0.0010970938895021
 30
0.0
 11
-0.0000000000000071
 21
5.998902906110496
 31
0.0
  0
LWPOLYLINE
  5
136
102
{ACAD_XDICTIONARY
360
134
102
}
330
1F
100
AcDbEntity
  8
BODY
  6
Continuous
 62
     7
370
     0
100
AcDbPolyline
 90
        8
 70
   129
 43
0.0
 10
94.0
 20
3.998902906110498
 10
68.0
 20
3.998902906110498
 42
-0.4142135623730951
 10
67.0
 20
4.998902906110498
 10
67.0
 20
40.9989029061105
 42
-0.4142135623730951
 10
68.0
 20
41.9989029061105
 10
94.0
 20
41.9989029061105
 42
-0.4142135623730951
 10
95.0
 20
40.9989029061105
 10
95.0
 20
4.998902906110498
 42
-0.4142135623730951
  0
LWPOLYLINE
  5
139
102
{ACAD_XDICTIONARY
360
137
102
}
330
1F
100
AcDbEntity
  8
BASE
  6
Continuous
 62
     1
420
 16711680
370
     0
100
AcDbPolyline
 90
        4
 70
   129
 43
0.0
 10
5.999999999999993
 20
1.498902906110498
 10
7.499999999999993
 20
1.498902906110498
 10
7.499999999999993
 20
-0.0010970938895021
 10
5.999999999999993
 20
-0.0010970938895021
  0
LINE
  5
13A
330
1F
100
AcDbEntity
  8
BASE
  6
Continuous
 62
     1
420
 16711680
370
     0
100
AcDbLine
 10
5.999999999999993
 20
1.498902906110498
 30
0.0
 11
7.499999999999993
 21
-0.0010970938895021
 31
0.0
  0
LINE
  5
13B
330
1F
100
AcDbEntity
  8
BASE
  6
Continuous
 62
     1
420
 16711680
370
     0
100
AcDbLine
 10
7.499999999999993
 20
1.498902906110498
 30
0.0
 11
5.999999999999993
 21
-0.0010970938895021
 31
0.0
  0
LWPOLYLINE
  5
13E
102
{ACAD_XDICTIONARY
360
13C
102
}
330
1F
100
AcDbEntity
  8
BASE
  6
Continuous
 62
     1
420
 16711680
370
     0
100
AcDbPolyline
 90
        4
 70
   129
 43
0.0
 10
102.0
 20
1.498902906110498
 10
100.5
 20
1.498902906110498
 10
100.5
 20
-0.0010970938895021
 10
102.0
 20
-0.0010970938895021
  0
LINE
  5
13F
330
1F
100
AcDbEntity
  8
BASE
  6
Continuous
 62
     1
420
 16711680
370
     0
100
AcDbLine
 10
100.5
 20
-0.0010970938895021
 30
0.0
 11
102.0
 21
1.498902906110498
 31
0.0
  0
LINE
  5
140
330
1F
100
AcDbEntity
  8
BASE
  6
Continuous
 62
     1
420
 16711680
370
     0
100
AcDbLine
 10
100.5
 20
1.498902906110498
 30
0.0
 11
102.0
 21
-0.0010970938895021
 31
0.0
  0
LWPOLYLINE
  5
143
102
{ACAD_XDICTIONARY
360
141
102
}
330
1F
100
AcDbEntity
  8
INTERIOR
  6
Continuous
 62
    53
420
 14408560
370
     0
100
AcDbPolyline
 90
        4
 70
   129
 43
0.0
 10
5.999999999999993
 20
1.998902906110498
 10
6.124999999999993
 20
1.998902906110498
 10
6.124999999999993
 20
18.8739029061105
 10
5.999999999999993
 20
18.8739029061105
  0
LWPOLYLINE
  5
146
102
{ACAD_XDICTIONARY
360
144
102
}
330
1F
100
AcDbEntity
  8
INTERIOR
  6
Continuous
 62
    53
420
 14408560
370
     0
100
AcDbPolyline
 90
        4
 70
   129
 43
0.0
 10
5.999999999999993
 20
18.8739029061105
 10
35.99999999999999
 20
18.8739029061105
 10
35.99999999999999
 20
18.9989029061105
 10
5.999999999999993
 20
18.9989029061105
  0
LINE
  5
147
330
1F
100
AcDbEntity
  8
INTERIOR
  6
Continuous
 62
    53
420
 14408560
370
     0
100
AcDbLine
 10
20.99999999999999
 20
1.998902906110498
 30
0.0
 11
21.0
 21
31.9989029061105
 31
0.0
  0
LINE
  5
148
330
1F
100
AcDbEntity
  8
INTERIOR
  6
Continuous
 62
    53
420
 14408560
370
     0
100
AcDbLine
 10
21.0
 20
31.9989029061105
 30
0.0
 11
21.125
 21
31.9989029061105
 31
0.0
  0
LINE
  5
149
330
1F
100
AcDbEntity
  8
INTERIOR
  6
Continuous
 62
    53
420
 14408560
370
     0
100
AcDbLine
 10
21.125
 20
31.9989029061105
 30
0.0
 11
21.12499999999999
 21
1.998902906110498
 31
0.0
  0
LINE
  5
14A
330
1F
100
AcDbEntity
  8
INTERIOR
  6
Continuous
 62
    53
420
 14408560
370
     0
100
AcDbLine
 10
21.12499999999999
 20
1.998902906110498
 30
0.0
 11
20.99999999999999
 21
1.998902906110498
 31
0.0
  0
LINE
  5
14B
330
1F
100
AcDbEntity
  8
BODY
  6
Continuous
 62
     7
370
     0
100
AcDbLine
 10
37.00467558354739
 20
45.94999799763809
 30
0.0
 11
-0.0000000000000071
 21
32.48139755654954
 31
0.0
  0
LINE
  5
14C
330
1F
100
AcDbEntity
  8
BODY
  6
Continuous
 62
     7
370
     0
100
AcDbLine
 10
-0.0000000000000071
 20
32.48139755654954
 30
0.0
 11
-0.0000000000000071
 21
5.998902906110498
 31
0.0
  0
LINE
  5
14D
330
1F
100
AcDbEntity
  8
INTERIOR
  6
Continuous
 62
    53
420
 14408560
370
     0
100
AcDbLine
 10
35.99999999999999
 20
18.8739029061105
 30
0.0
 11
35.99999999999999
 21
45.58432599013283
 31
0.0
  0
LINE
  5
14E
330
1F
100
AcDbEntity
  8
INTERIOR
  6
Continuous
 62
    53
420
 14408560
370
     0
100
AcDbLine
 10
35.99999999999999
 20
18.8739029061105
 30
0.0
 11
36.12499999999999
 21
18.8739029061105
 31
0.0
  0
LINE
  5
14F
330
1F
100
AcDbEntity
  8
INTERIOR
  6
Continuous
 62
    53
420
 14408560
370
     0
100
AcDbLine
 10
36.12499999999999
 20
18.8739029061105
 30
0.0
 11
36.12499999999999
 21
45.6298222694161
 31
0.0
  0
LWPOLYLINE
  5
152
102
{ACAD_XDICTIONARY
360
150
102
}
330
1F
100
AcDbEntity
  8
INTERIOR
  6
Continuous
 62
    53
420
 14408560
370
     0
100
AcDbPolyline
 90
        4
 70
   129
 43
0.0
 10
36.13
 20
24.87890290611049
 10
51.13
 20
24.87890290611049
 10
51.13
 20
25.00390290611049
 10
36.13
 20
25.00390290611049
  0
LINE
  5
153
330
1F
100
AcDbEntity
  8
INTERIOR
  6
Continuous
 62
    53
420
 14408560
370
     0
100
AcDbLine
 10
51.13
 20
24.87890290611049
 30
0.0
 11
51.13
 21
46.44326519558119
 31
0.0
  0
LINE
  5
154
330
1F
100
AcDbEntity
  8
INTERIOR
  6
Continuous
 62
    53
420
 14408560
370
     0
100
AcDbLine
 10
51.13
 20
24.87890290611049
 30
0.0
 11
51.255
 21
24.87890290611049
 31
0.0
  0
LINE
  5
155
330
1F
100
AcDbEntity
  8
INTERIOR
  6
Continuous
 62
    53
420
 14408560
370
     0
100
AcDbLine
 10
51.255
 20
24.87890290611049
 30
0.0
 11
51.255
 21
46.44763029176767
 31
0.0
  0
LINE
  5
156
330
1F
100
AcDbEntity
  8
INTERIOR
  6
Continuous
 62
    53
420
 14408560
370
     0
100
AcDbLine
 10
102.0
 20
1.998902906110498
 30
0.0
 11
101.875
 21
1.998902906110498
 31
0.0
  0
LINE
  5
157
330
1F
100
AcDbEntity
  8
INTERIOR
  6
Continuous
 62
    53
420
 14408560
370
     0
100
AcDbLine
 10
101.875
 20
1.998902906110498
 30
0.0
 11
101.875
 21
41.06330458666747
 31
0.0
  0
LINE
  5
158
330
1F
100
AcDbEntity
  8
INTERIOR
  6
Continuous
 62
    53
420
 14408560
370
     0
100
AcDbLine
 10
102.0
 20
1.998902906110498
 30
0.0
 11
102.0
 21
41.12159304393685
 31
0.0
  0
LWPOLYLINE
  5
15B
102
{ACAD_XDICTIONARY
360
159
102
}
330
1F
100
AcDbEntity
  8
INTERIOR
  6
Continuous
 62
    53
420
 14408560
370
     0
100
AcDbPolyline
 90
        4
 70
   129
 43
0.0
 10
102.0
 20
23.79575779745899
 10
114.0
 20
23.79575779745899
 10
114.0
 20
23.67075779745899
 10
102.0
 20
23.67075779745899
  0
LWPOLYLINE
  5
15E
102
{ACAD_XDICTIONARY
360
15C
102
}
330
1F
100
AcDbEntity
  8
INTERIOR
  6
Continuous
 62
    53
420
 14408560
370
     0
100
AcDbPolyline
 90
        4
 70
   129
 43
0.0
 10
114.0
 20
35.46761268880749
 10
102.0
 20
35.46761268880749
 10
102.0
 20
35.34261268880749
 10
114.0
 20
35.34261268880749
  0
LWPOLYLINE
  5
161
102
{ACAD_XDICTIONARY
360
15F
102
}
330
1F
100
AcDbEntity
  8
INTERIOR
  6
Continuous
 62
    53
420
 14408560
370
     0
100
AcDbPolyline
 90
        4
 70
   129
 43
0.0
 10
114.0
 20
11.9989029061105
 10
102.0
 20
11.9989029061105
 10
102.0
 20
12.1239029061105
 10
114.0
 20
12.1239029061105
  0
LWPOLYLINE
  5
164
102
{ACAD_REACTORS
330
167
102
}
102
{ACAD_XDICTIONARY
360
162
102
}
330
1F
100
AcDbEntity
  8
BASE
  6
Continuous
 62
     1
420
 16711680
370
     0
100
AcDbPolyline
 90
        4
 70
   129
 43
0.0
 10
26.53824029452979
 20
6.331454916153824
 10
28.03824029452979
 20
6.331454916153824
 10
28.03824029452979
 20
0.0000000000000001
 10
26.53824029452979
 20
0.0
  0
LINE
  5
165
102
{ACAD_REACTORS
330
167
102
}
330
1F
100
AcDbEntity
  8
BASE
  6
Continuous
 62
     1
420
 16711680
370
     0
100
AcDbLine
 10
26.53824029452979
 20
6.331454916153824
 30
0.0
 11
28.03824029452979
 21
0.0000000000000001
 31
0.0
  0
LINE
  5
166
102
{ACAD_REACTORS
330
167
102
}
330
1F
100
AcDbEntity
  8
BASE
  6
Continuous
 62
     1
420
 16711680
370
     0
100
AcDbLine
 10
28.03824029452979
 20
6.331454916153824
 30
0.0
 11
26.53824029452979
 21
0.0
 31
0.0
  0
LWPOLYLINE
  5
16C
102
{ACAD_REACTORS
330
16F
102
}
102
{ACAD_XDICTIONARY
360
16A
102
}
330
1F
100
AcDbEntity
  8
BASE
  6
Continuous
 62
     1
420
 16711680
370
     0
100
AcDbPolyline
 90
        4
 70
   129
 43
0.0
 10
47.27554355311137
 20
6.325531949039082
 10
48.77554355311137
 20
6.325531949039082
 10
48.77554355311137
 20
0.0
 10
47.27554355311137
 20
-0.0000000000000001
  0
LINE
  5
16D
102
{ACAD_REACTORS
330
16F
102
}
330
1F
100
AcDbEntity
  8
BASE
  6
Continuous
 62
     1
420
 16711680
370
     0
100
AcDbLine
 10
47.27554355311137
 20
6.325531949039082
 30
0.0
 11
48.77554355311137
 21
0.0
 31
0.0
  0
LINE
  5
16E
102
{ACAD_REACTORS
330
16F
102
}
330
1F
100
AcDbEntity
  8
BASE
  6
Continuous
 62
     1
420
 16711680
370
     0
100
AcDbLine
 10
48.77554355311137
 20
6.325531949039082
 30
0.0
 11
47.27554355311137
 21
-0.0000000000000001
 31
0.0
  0
LWPOLYLINE
  5
174
102
{ACAD_XDICTIONARY
360
172
102
}
330
1F
100
AcDbEntity
  8
BASE
  6
Continuous
 62
     1
420
 16711680
370
     0
100
AcDbPolyline
 90
        4
 70
   129
 43
0.0
 10
5.999999999999993
 20
1.498902906110498
 10
26.53824029452979
 20
1.498902906110498
 10
26.53824029452979
 20
1.998902906110498
 10
5.999999999999993
 20
1.998902906110498
  0
LWPOLYLINE
  5
177
102
{ACAD_XDICTIONARY
360
175
102
}
330
1F
100
AcDbEntity
  8
BASE
  6
Continuous
 62
     1
420
 16711680
370
     0
100
AcDbPolyline
 90
        4
 70
   129
 43
0.0
 10
102.0
 20
1.498902906110498
 10
48.77554355311137
 20
1.498902906110498
 10
48.77554355311137
 20
1.998902906110498
 10
102.0
 20
1.998902906110498
  0
LWPOLYLINE
  5
17A
102
{ACAD_XDICTIONARY
360
178
102
}
330
1F
100
AcDbEntity
  8
BASE
  6
Continuous
 62
     1
420
 16711680
370
     0
100
AcDbPolyline
 90
        4
 70
   129
 43
0.0
 10
7.499999999999993
 20
-0.0010970938895021
 10
26.53824029452979
 20
-0.0010970938895021
 10
26.53824029452979
 20
1.498902906110498
 10
7.499999999999993
 20
1.498902906110498
  0
LWPOLYLINE
  5
17D
102
{ACAD_XDICTIONARY
360
17B
102
}
330
1F
100
AcDbEntity
  8
BASE
  6
Continuous
 62
     1
420
 16711680
370
     0
100
AcDbPolyline
 90
        4
 70
   129
 43
0.0
 10
101.9860090835311
 20
0.0055319490390815
 10
48.77554355311137
 20
0.0055319490390815
 10
48.77554355311137
 20
1.498902906110498
 10
101.9860090835311
 20
1.498902906110498
  0
LWPOLYLINE
  5
180
102
{ACAD_XDICTIONARY
360
17E
102
}
330
1F
100
AcDbEntity
  8
BASE
  6
Continuous
 62
     1
420
 16711680
370
     0
100
AcDbPolyline
 90
        4
 70
   129
 43
0.0
 10
26.54735745424028
 20
6.325531949039082
 10
48.78466071282186
 20
6.325531949039082
 10
48.78466071282186
 20
6.825531949039082
 10
26.54735745424028
 20
6.825531949039082
  0
LWPOLYLINE
  5
183
102
{ACAD_REACTORS
330
186
102
}
102
{ACAD_XDICTIONARY
360
181
102
}
330
1F
100
AcDbEntity
  8
BASE
  6
Continuous
 62
     1
420
 16711680
370
     0
100
AcDbPolyline
 90
        4
 70
   129
 43
0.0
 10
25.02153368475804
 20
1.492777826810064
 10
26.52153368475804
 20
1.492777826810064
 10
26.52153368475804
 20
-0.0072221731899358
 10
25.02153368475804
 20
-0.0072221731899358
  0
LINE
  5
184
102
{ACAD_REACTORS
330
186
102
}
330
1F
100
AcDbEntity
  8
BASE
  6
Continuous
 62
     1
420
 16711680
370
     0
100
AcDbLine
 10
25.02153368475804
 20
1.492777826810064
 30
0.0
 11
26.52153368475804
 21
-0.0072221731899358
 31
0.0
  0
LINE
  5
185
102
{ACAD_REACTORS
330
186
102
}
330
1F
100
AcDbEntity
  8
BASE
  6
Continuous
 62
     1
420
 16711680
370
     0
100
AcDbLine
 10
26.52153368475804
 20
1.492777826810064
 30
0.0
 11
25.02153368475804
 21
-0.0072221731899358
 31
0.0
  0
LWPOLYLINE
  5
18B
102
{ACAD_REACTORS
330
18E
102
}
102
{ACAD_XDICTIONARY
360
189
102
}
330
1F
100
AcDbEntity
  8
BASE
  6
Continuous
 62
     1
420
 16711680
370
     0
100
AcDbPolyline
 90
        4
 70
   129
 43
0.0
 10
48.77616942805386
 20
1.492777826810064
 10
50.27616942805386
 20
1.492777826810064
 10
50.27616942805386
 20
-0.0072221731899358
 10
48.77616942805386
 20
-0.0072221731899358
  0
LINE
  5
18C
102
{ACAD_REACTORS
330
18E
102
}
330
1F
100
AcDbEntity
  8
BASE
  6
Continuous
 62
     1
420
 16711680
370
     0
100
AcDbLine
 10
48.77616942805386
 20
1.492777826810064
 30
0.0
 11
50.27616942805386
 21
-0.0072221731899358
 31
0.0
  0
LINE
  5
18D
102
{ACAD_REACTORS
330
18E
102
}
330
1F
100
AcDbEntity
  8
BASE
  6
Continuous
 62
     1
420
 16711680
370
     0
100
AcDbLine
 10
50.27616942805386
 20
1.492777826810064
 30
0.0
 11
48.77616942805386
 21
-0.0072221731899358
 31
0.0
  0
LINE
  5
193
102
{ACAD_XDICTIONARY
360
191
102
}
330
1F
100
AcDbEntity
  8
0
  6
CENTER
 62
     7
 48
0.2000000029802322
370
    25
100
AcDbLine
 10
156.0135834765769
 20
104.0081540270287
 30
0.0
 11
-31.53077612105206
 21
104.0081540270287
 31
0.0
  0
LINE
  5
196
102
{ACAD_XDICTIONARY
360
194
102
}
330
1F
100
AcDbEntity
  8
CHASSIS
  6
Continuous
 62
     5
420
      255
 48
0.2000000029802322
370
    25
100
AcDbLine
 10
101.9838312378019
 20
80.00815402702867
 30
0.0
 11
101.9838312378019
 21
128.0081540270287
 31
0.0
  0
LINE
  5
199
102
{ACAD_XDICTIONARY
360
197
102
}
330
1F
100
AcDbEntity
  8
CHASSIS
  6
Continuous
 62
     5
420
      255
 48
0.2000000029802322
370
    25
100
AcDbLine
 10
5.983831237801937
 20
80.00815402702867
 30
0.0
 11
5.983831237801937
 21
128.0081540270287
 31
0.0
  0
LINE
  5
19C
102
{ACAD_XDICTIONARY
360
19A
102
}
330
1F
100
AcDbEntity
  8
CHASSIS
  6
Continuous
 62
     5
420
      255
 48
0.2000000029802322
370
    25
100
AcDbLine
 10
101.9838312378019
 20
128.0081540270287
 30
0.0
 11
5.983831237801937
 21
128.0081540270287
 31
0.0
  0
LINE
  5
19F
102
{ACAD_XDICTIONARY
360
19D
102
}
330
1F
100
AcDbEntity
  8
CHASSIS
  6
Continuous
 62
     5
420
      255
 48
0.2000000029802322
370
    25
100
AcDbLine
 10
101.9838312378019
 20
80.00815402702867
 30
0.0
 11
5.983831237801937
 21
80.00815402702867
 31
0.0
  0
LINE
  5
1A2
102
{ACAD_XDICTIONARY
360
1A0
102
}
330
1F
100
AcDbEntity
  8
CHASSIS
  6
Continuous
 62
     5
420
      255
 48
0.2000000029802322
370
    25
100
AcDbLine
 10
54.48383123780194
 20
80.00815402702867
 30
0.0
 11
54.48383123780194
 21
128.0081540270287
 31
0.0
  0
LINE
  5
1A5
102
{ACAD_XDICTIONARY
360
1A3
102
}
330
1F
100
AcDbEntity
  8
CHASSIS
  6
Continuous
 62
     5
420
      255
 48
0.2000000029802322
370
    25
100
AcDbLine
 10
53.48383123780194
 20
80.00815402702867
 30
0.0
 11
53.48383123780194
 21
128.0081540270287
 31
0.0
  0
LINE
  5
1A8
102
{ACAD_XDICTIONARY
360
1A6
102
}
330
1F
100
AcDbEntity
  8
CHASSIS
  6
Continuous
 62
     5
420
      255
 48
0.2000000029802322
370
    25
100
AcDbLine
 10
77.98383123780194
 20
81.50815402702867
 30
0.0
 11
77.98383123780194
 21
126.5081540270287
 31
0.0
  0
LINE
  5
1AB
102
{ACAD_XDICTIONARY
360
1A9
102
}
330
1F
100
AcDbEntity
  8
CHASSIS
  6
Continuous
 62
     5
420
      255
 48
0.2000000029802322
370
    25
100
AcDbLine
 10
29.98383123780194
 20
81.50815402702867
 30
0.0
 11
29.98383123780194
 21
126.5081540270287
 31
0.0
  0
LINE
  5
1AE
102
{ACAD_XDICTIONARY
360
1AC
102
}
330
1F
100
AcDbEntity
  8
CHASSIS
  6
Continuous
 62
     5
420
      255
 48
0.2000000029802322
370
    25
100
AcDbLine
 10
101.9838312378019
 20
126.5081540270287
 30
0.0
 11
54.48383123780194
 21
126.5081540270287
 31
0.0
  0
LINE
  5
1B1
102
{ACAD_XDICTIONARY
360
1AF
102
}
330
1F
100
AcDbEntity
  8
CHASSIS
  6
Continuous
 62
     5
420
      255
 48
0.2000000029802322
370
    25
100
AcDbLine
 10
53.48383123780194
 20
126.5081540270287
 30
0.0
 11
5.983831237801937
 21
126.5081540270287
 31
0.0
  0
LINE
  5
1B4
102
{ACAD_XDICTIONARY
360
1B2
102
}
330
1F
100
AcDbEntity
  8
CHASSIS
  6
Continuous
 62
     5
420
      255
 48
0.2000000029802322
370
    25
100
AcDbLine
 10
101.9838312378019
 20
81.50815402702867
 30
0.0
 11
54.48383123780194
 21
81.50815402702867
 31
0.0
  0
LINE
  5
1B7
102
{ACAD_XDICTIONARY
360
1B5
102
}
330
1F
100
AcDbEntity
  8
CHASSIS
  6
Continuous
 62
     5
420
      255
 48
0.2000000029802322
370
    25
100
AcDbLine
 10
53.48383123780194
 20
81.50815402702867
 30
0.0
 11
5.983831237801937
 21
81.50815402702867
 31
0.0
  0
LINE
  5
1BA
102
{ACAD_XDICTIONARY
360
1B8
102
}
330
1F
100
AcDbEntity
  8
CHASSIS
  6
Continuous
 62
     5
420
      255
 48
0.2000000029802322
370
    25
100
AcDbLine
 10
51.98383123780194
 20
81.50815402702867
 30
0.0
 11
51.98383123780194
 21
126.5081540270287
 31
0.0
  0
LINE
  5
1BD
102
{ACAD_XDICTIONARY
360
1BB
102
}
330
1F
100
AcDbEntity
  8
CHASSIS
  6
Continuous
 62
     5
420
      255
 48
0.2000000029802322
370
    25
100
AcDbLine
 10
55.98383123780194
 20
81.50815402702867
 30
0.0
 11
55.98383123780194
 21
126.5081540270287
 31
0.0
  0
LINE
  5
1C0
102
{ACAD_XDICTIONARY
360
1BE
102
}
330
1F
100
AcDbEntity
  8
CHASSIS
  6
Continuous
 62
     5
420
      255
 48
0.2000000029802322
370
    25
100
AcDbLine
 10
31.48383123780194
 20
81.50815402702867
 30
0.0
 11
31.48383123780194
 21
126.5081540270287
 31
0.0
  0
LINE
  5
1C3
102
{ACAD_XDICTIONARY
360
1C1
102
}
330
1F
100
AcDbEntity
  8
CHASSIS
  6
Continuous
 62
     5
420
      255
 48
0.2000000029802322
370
    25
100
AcDbLine
 10
7.483831237801937
 20
81.50815402702867
 30
0.0
 11
7.483831237801937
 21
126.5081540270287
 31
0.0
  0
LINE
  5
1C6
102
{ACAD_XDICTIONARY
360
1C4
102
}
330
1F
100
AcDbEntity
  8
CHASSIS
  6
Continuous
 62
     5
420
      255
 48
0.2000000029802322
370
    25
100
AcDbLine
 10
76.48383123780194
 20
81.50815402702867
 30
0.0
 11
76.48383123780194
 21
126.5081540270287
 31
0.0
  0
LINE
  5
1C9
102
{ACAD_XDICTIONARY
360
1C7
102
}
330
1F
100
AcDbEntity
  8
CHASSIS
  6
Continuous
 62
     5
420
      255
 48
0.2000000029802322
370
    25
100
AcDbLine
 10
100.4838312378019
 20
81.50815402702867
 30
0.0
 11
100.4838312378019
 21
126.5081540270287
 31
0.0
  0
LINE
  5
1CC
102
{ACAD_XDICTIONARY
360
1CA
102
}
330
1F
100
AcDbEntity
  8
CHASSIS
  6
Continuous
 62
     5
420
      255
 48
0.2000000029802322
370
    25
100
AcDbLine
 10
27.69985427533671
 20
77.97901000605101
 30
0.0
 11
27.69985427533671
 21
74.22901000605101
 31
0.0
  0
LINE
  5
1CF
102
{ACAD_XDICTIONARY
360
1CD
102
}
330
1F
100
AcDbEntity
  8
CHASSIS
  6
Continuous
 62
     5
420
      255
 48
0.2000000029802322
370
    25
100
AcDbLine
 10
48.3398542753367
 20
74.22901000605101
 30
0.0
 11
27.69985427533671
 21
74.22901000605101
 31
0.0
  0
LINE
  5
1D2
102
{ACAD_XDICTIONARY
360
1D0
102
}
330
1F
100
AcDbEntity
  8
CHASSIS
  6
Continuous
 62
     5
420
      255
 48
0.2000000029802322
370
    25
100
AcDbLine
 10
48.3398542753367
 20
77.97901000605101
 30
0.0
 11
27.69985427533671
 21
77.97901000605101
 31
0.0
  0
ARC
  5
1D5
102
{ACAD_XDICTIONARY
360
1D3
102
}
330
1F
100
AcDbEntity
  8
CHASSIS
  6
Continuous
 62
     5
420
      255
 48
0.2000000029802322
370
    25
100
AcDbCircle
 10
29.85985427533671
 20
78.64461000605101
 30
0.0
 40
4.915600000000008
100
AcDbArc
 50
243.9332873481709
 51
270.0
  0
ARC
  5
1D8
102
{ACAD_XDICTIONARY
360
1D6
102
}
330
1F
100
AcDbEntity
  8
CHASSIS
  6
Continuous
 62
     5
420
      255
 48
0.2000000029802322
370
    25
100
AcDbCircle
 10
29.85985427533671
 20
73.56341000605101
 30
0.0
 40
4.915599999999998
100
AcDbArc
 50
90.0
 51
116.0667126518289
  0
LINE
  5
1DB
102
{ACAD_XDICTIONARY
360
1D9
102
}
330
1F
100
AcDbEntity
  8
CHASSIS
  6
Continuous
 62
     5
420
      255
 48
0.2000000029802322
370
    25
100
AcDbLine
 10
48.3398542753367
 20
77.97901000605101
 30
0.0
 11
48.3398542753367
 21
74.22901000605101
 31
0.0
  0
ARC
  5
1DE
102
{ACAD_XDICTIONARY
360
1DC
102
}
330
1F
100
AcDbEntity
  8
CHASSIS
  6
Continuous
 62
     5
420
      255
 48
0.2000000029802322
370
    25
100
AcDbCircle
 10
46.1798542753367
 20
78.64461000605101
 30
0.0
 40
4.915599999999998
100
AcDbArc
 50
270.0
 51
296.0667126518289
  0
ARC
  5
1E1
102
{ACAD_XDICTIONARY
360
1DF
102
}
330
1F
100
AcDbEntity
  8
CHASSIS
  6
Continuous
 62
     5
420
      255
 48
0.2000000029802322
370
    25
100
AcDbCircle
 10
46.1798542753367
 20
73.56341000605101
 30
0.0
 40
4.915600000000002
100
AcDbArc
 50
63.93328734817108
 51
90.0
  0
LINE
  5
1E4
102
{ACAD_XDICTIONARY
360
1E2
102
}
330
1F
100
AcDbEntity
  8
CHASSIS
  6
Continuous
 62
     5
420
      255
 48
0.2000000029802322
370
    25
100
AcDbLine
 10
46.1798550294727
 20
78.47901000605101
 30
0.0
 11
29.85985427533671
 21
78.47901000605101
 31
0.0
  0
LINE
  5
1E7
102
{ACAD_XDICTIONARY
360
1E5
102
}
330
1F
100
AcDbEntity
  8
CHASSIS
  6
Continuous
 62
     5
420
      255
 48
0.2000000029802322
370
    25
100
AcDbLine
 10
46.1798542753367
 20
73.72901000605101
 30
0.0
 11
29.85985427533671
 21
73.72901000605101
 31
0.0
  0
LINE
  5
1EA
102
{ACAD_XDICTIONARY
360
1E8
102
}
330
1F
100
AcDbEntity
  8
CHASSIS
  6
Continuous
 62
     5
420
      255
 48
0.2000000029802322
370
    25
100
AcDbLine
 10
27.69985427533671
 20
130.2290100060511
 30
0.0
 11
27.69985427533671
 21
133.9790100060511
 31
0.0
  0
LINE
  5
1ED
102
{ACAD_XDICTIONARY
360
1EB
102
}
330
1F
100
AcDbEntity
  8
CHASSIS
  6
Continuous
 62
     5
420
      255
 48
0.2000000029802322
370
    25
100
AcDbLine
 10
48.3398542753367
 20
133.9790100060511
 30
0.0
 11
27.69985427533671
 21
133.9790100060511
 31
0.0
  0
LINE
  5
1F0
102
{ACAD_XDICTIONARY
360
1EE
102
}
330
1F
100
AcDbEntity
  8
CHASSIS
  6
Continuous
 62
     5
420
      255
 48
0.2000000029802322
370
    25
100
AcDbLine
 10
48.3398542753367
 20
130.2290100060511
 30
0.0
 11
27.69985427533671
 21
130.2290100060511
 31
0.0
  0
ARC
  5
1F3
102
{ACAD_XDICTIONARY
360
1F1
102
}
330
1F
100
AcDbEntity
  8
CHASSIS
  6
Continuous
 62
     5
420
      255
 48
0.2000000029802322
370
    25
100
AcDbCircle
 10
29.85985427533671
 20
129.563410006051
 30
0.0
 40
4.915600000000019
100
AcDbArc
 50
90.0
 51
116.066712651829
  0
ARC
  5
1F6
102
{ACAD_XDICTIONARY
360
1F4
102
}
330
1F
100
AcDbEntity
  8
CHASSIS
  6
Continuous
 62
     5
420
      255
 48
0.2000000029802322
370
    25
100
AcDbCircle
 10
29.85985427533671
 20
134.644610006051
 30
0.0
 40
4.915599999999989
100
AcDbArc
 50
243.9332873481709
 51
270.0
  0
LINE
  5
1F9
102
{ACAD_XDICTIONARY
360
1F7
102
}
330
1F
100
AcDbEntity
  8
CHASSIS
  6
Continuous
 62
     5
420
      255
 48
0.2000000029802322
370
    25
100
AcDbLine
 10
48.3398542753367
 20
130.2290100060511
 30
0.0
 11
48.3398542753367
 21
133.9790100060511
 31
0.0
  0
ARC
  5
1FC
102
{ACAD_XDICTIONARY
360
1FA
102
}
330
1F
100
AcDbEntity
  8
CHASSIS
  6
Continuous
 62
     5
420
      255
 48
0.2000000029802322
370
    25
100
AcDbCircle
 10
46.1798542753367
 20
129.563410006051
 30
0.0
 40
4.915600000000024
100
AcDbArc
 50
63.93328734817103
 51
90.0
  0
ARC
  5
1FF
102
{ACAD_XDICTIONARY
360
1FD
102
}
330
1F
100
AcDbEntity
  8
CHASSIS
  6
Continuous
 62
     5
420
      255
 48
0.2000000029802322
370
    25
100
AcDbCircle
 10
46.1798542753367
 20
134.644610006051
 30
0.0
 40
4.915599999999991
100
AcDbArc
 50
270.0
 51
296.066712651829
  0
LINE
  5
202
102
{ACAD_XDICTIONARY
360
200
102
}
330
1F
100
AcDbEntity
  8
CHASSIS
  6
Continuous
 62
     5
420
      255
 48
0.2000000029802322
370
    25
100
AcDbLine
 10
46.1798550294727
 20
129.7290100060511
 30
0.0
 11
29.85985427533671
 21
129.7290100060511
 31
0.0
  0
LINE
  5
205
102
{ACAD_XDICTIONARY
360
203
102
}
330
1F
100
AcDbEntity
  8
CHASSIS
  6
Continuous
 62
     5
420
      255
 48
0.2000000029802322
370
    25
100
AcDbLine
 10
46.1798542753367
 20
134.4790100060511
 30
0.0
 11
29.85985427533671
 21
134.4790100060511
 31
0.0
  0
ARC
  5
208
102
{ACAD_XDICTIONARY
360
206
102
}
330
1F
100
AcDbEntity
  8
CHASSIS
  6
Continuous
 62
     5
420
      255
 48
0.2000000029802322
370
    25
100
AcDbCircle
 10
145.47202021418
 20
104.0081540270287
 30
0.0
 40
1.574803149605998
100
AcDbArc
 50
270.0
 51
90.0
  0
ARC
  5
20B
102
{ACAD_XDICTIONARY
360
209
102
}
330
1F
100
AcDbEntity
  8
CHASSIS
  6
Continuous
 62
     5
420
      255
 48
0.2000000029802322
370
    25
100
AcDbCircle
 10
145.6295005291399
 20
104.0081540270287
 30
0.0
 40
1.18110236220501
100
AcDbArc
 50
270.0
 51
90.0
  0
LINE
  5
20E
102
{ACAD_XDICTIONARY
360
20C
102
}
330
1F
100
AcDbEntity
  8
CHASSIS
  6
Continuous
 62
     5
420
      255
 48
0.2000000029802322
370
    25
100
AcDbLine
 10
136.8499729700849
 20
105.1892563892327
 30
0.0
 11
145.6295005291399
 21
105.1892563892327
 31
0.0
  0
LINE
  5
211
102
{ACAD_XDICTIONARY
360
20F
102
}
330
1F
100
AcDbEntity
  8
CHASSIS
  6
Continuous
 62
     5
420
      255
 48
0.2000000029802322
370
    25
100
AcDbLine
 10
136.8499729700849
 20
102.8270516648237
 30
0.0
 11
145.6295005291399
 21
102.8270516648237
 31
0.0
  0
LINE
  5
214
102
{ACAD_XDICTIONARY
360
212
102
}
330
1F
100
AcDbEntity
  8
CHASSIS
  6
Continuous
 62
     5
420
      255
 48
0.2000000029802322
370
    25
100
AcDbLine
 10
136.8499729700849
 20
105.5829571766347
 30
0.0
 11
145.47202021418
 21
105.5829571766347
 31
0.0
  0
ARC
  5
217
102
{ACAD_XDICTIONARY
360
215
102
}
330
1F
100
AcDbEntity
  8
CHASSIS
  6
Continuous
 62
     5
420
      255
 48
0.2000000029802322
370
    25
100
AcDbCircle
 10
143.3066658834709
 20
104.2050044207297
 30
0.0
 40
0.3937007874019969
100
AcDbArc
 50
0.0
 51
90.0
  0
ARC
  5
21A
102
{ACAD_XDICTIONARY
360
218
102
}
330
1F
100
AcDbEntity
  8
CHASSIS
  6
Continuous
 62
     5
420
      255
 48
0.2000000029802322
370
    25
100
AcDbCircle
 10
138.03107533229
 20
104.2050044207297
 30
0.0
 40
0.3937007874019969
100
AcDbArc
 50
90.0
 51
180.0
  0
LINE
  5
21D
102
{ACAD_XDICTIONARY
360
21B
102
}
330
1F
100
AcDbEntity
  8
CHASSIS
  6
Continuous
 62
     5
420
      255
 48
0.2000000029802322
370
    25
100
AcDbLine
 10
143.3066658834709
 20
104.5987052081307
 30
0.0
 11
138.03107533229
 21
104.5987052081307
 31
0.0
  0
LINE
  5
220
102
{ACAD_XDICTIONARY
360
21E
102
}
330
1F
100
AcDbEntity
  8
CHASSIS
  6
Continuous
 62
     5
420
      255
 48
0.2000000029802322
370
    25
100
AcDbLine
 10
143.424776119692
 20
104.7955556018317
 30
0.0
 11
142.0074532850459
 21
104.7955556018317
 31
0.0
  0
LINE
  5
223
102
{ACAD_XDICTIONARY
360
221
102
}
330
1F
100
AcDbEntity
  8
CHASSIS
  6
Continuous
 62
     5
420
      255
 48
0.2000000029802322
370
    25
100
AcDbLine
 10
142.0074532850459
 20
104.5987052081307
 30
0.0
 11
142.0074532850459
 21
104.7955556018317
 31
0.0
  0
LINE
  5
226
102
{ACAD_XDICTIONARY
360
224
102
}
330
1F
100
AcDbEntity
  8
CHASSIS
  6
Continuous
 62
     5
420
      255
 48
0.2000000029802322
370
    25
100
AcDbLine
 10
143.424776119692
 20
104.5987052081307
 30
0.0
 11
143.424776119692
 21
104.7955556018317
 31
0.0
  0
LINE
  5
229
102
{ACAD_XDICTIONARY
360
227
102
}
330
1F
100
AcDbEntity
  8
CHASSIS
  6
Continuous
 62
     5
420
      255
 48
0.2000000029802322
370
    25
100
AcDbLine
 10
143.560251821623
 20
105.3588540364427
 30
0.0
 11
142.864582530285
 21
105.3588540364427
 31
0.0
  0
LINE
  5
22C
102
{ACAD_XDICTIONARY
360
22A
102
}
330
1F
100
AcDbEntity
  8
CHASSIS
  6
Continuous
 62
     5
420
      255
 48
0.2000000029802322
370
    25
100
AcDbLine
 10
143.560251821623
 20
105.1892563892327
 30
0.0
 11
143.560251821623
 21
105.3588540364427
 31
0.0
  0
LINE
  5
22F
102
{ACAD_XDICTIONARY
360
22D
102
}
330
1F
100
AcDbEntity
  8
CHASSIS
  6
Continuous
 62
     5
420
      255
 48
0.2000000029802322
370
    25
100
AcDbLine
 10
142.864582530285
 20
105.1892563892327
 30
0.0
 11
142.864582530285
 21
105.3588540364427
 31
0.0
  0
LINE
  5
232
102
{ACAD_XDICTIONARY
360
230
102
}
330
1F
100
AcDbEntity
  8
CHASSIS
  6
Continuous
 62
     5
420
      255
 48
0.2000000029802322
370
    25
100
AcDbLine
 10
136.8499729700849
 20
102.4333508774227
 30
0.0
 11
145.4720203109339
 21
102.4333508774227
 31
0.0
  0
ARC
  5
235
102
{ACAD_XDICTIONARY
360
233
102
}
330
1F
100
AcDbEntity
  8
CHASSIS
  6
Continuous
 62
     5
420
      255
 48
0.2000000029802322
370
    25
100
AcDbCircle
 10
143.3066658834709
 20
103.8113036333277
 30
0.0
 40
0.3937007874019969
100
AcDbArc
 50
270.0
 51
0.0
  0
ARC
  5
238
102
{ACAD_XDICTIONARY
360
236
102
}
330
1F
100
AcDbEntity
  8
CHASSIS
  6
Continuous
 62
     5
420
      255
 48
0.2000000029802322
370
    25
100
AcDbCircle
 10
138.03107533229
 20
103.8113036333277
 30
0.0
 40
0.3937007874010163
100
AcDbArc
 50
180.0
 51
270.0
  0
LINE
  5
23B
102
{ACAD_XDICTIONARY
360
239
102
}
330
1F
100
AcDbEntity
  8
CHASSIS
  6
Continuous
 62
     5
420
      255
 48
0.2000000029802322
370
    25
100
AcDbLine
 10
143.3066658834709
 20
103.4176028459267
 30
0.0
 11
138.03107533229
 21
103.4176028459267
 31
0.0
  0
LINE
  5
23E
102
{ACAD_XDICTIONARY
360
23C
102
}
330
1F
100
AcDbEntity
  8
CHASSIS
  6
Continuous
 62
     5
420
      255
 48
0.2000000029802322
370
    25
100
AcDbLine
 10
143.424776119692
 20
103.2207524522257
 30
0.0
 11
142.0074532850459
 21
103.2207524522257
 31
0.0
  0
LINE
  5
241
102
{ACAD_XDICTIONARY
360
23F
102
}
330
1F
100
AcDbEntity
  8
CHASSIS
  6
Continuous
 62
     5
420
      255
 48
0.2000000029802322
370
    25
100
AcDbLine
 10
142.0074532850459
 20
103.4176028459267
 30
0.0
 11
142.0074532850459
 21
103.2207524522257
 31
0.0
  0
LINE
  5
244
102
{ACAD_XDICTIONARY
360
242
102
}
330
1F
100
AcDbEntity
  8
CHASSIS
  6
Continuous
 62
     5
420
      255
 48
0.2000000029802322
370
    25
100
AcDbLine
 10
143.424776119692
 20
103.4176028459267
 30
0.0
 11
143.424776119692
 21
103.2207524522257
 31
0.0
  0
LINE
  5
247
102
{ACAD_XDICTIONARY
360
245
102
}
330
1F
100
AcDbEntity
  8
CHASSIS
  6
Continuous
 62
     5
420
      255
 48
0.2000000029802322
370
    25
100
AcDbLine
 10
143.560251821623
 20
102.6574540176147
 30
0.0
 11
142.864582530285
 21
102.6574540176147
 31
0.0
  0
LINE
  5
24A
102
{ACAD_XDICTIONARY
360
248
102
}
330
1F
100
AcDbEntity
  8
CHASSIS
  6
Continuous
 62
     5
420
      255
 48
0.2000000029802322
370
    25
100
AcDbLine
 10
143.560251821623
 20
102.8270516648237
 30
0.0
 11
143.560251821623
 21
102.6574540176147
 31
0.0
  0
LINE
  5
24D
102
{ACAD_XDICTIONARY
360
24B
102
}
330
1F
100
AcDbEntity
  8
CHASSIS
  6
Continuous
 62
     5
420
      255
 48
0.2000000029802322
370
    25
100
AcDbLine
 10
142.864582530285
 20
102.8270516648237
 30
0.0
 11
142.864582530285
 21
102.6574540176147
 31
0.0
  0
LINE
  5
250
102
{ACAD_XDICTIONARY
360
24E
102
}
330
1F
100
AcDbEntity
  8
CHASSIS
  6
Continuous
 62
     5
420
      255
 48
0.2000000029802322
370
    25
100
AcDbLine
 10
136.8499729700849
 20
104.0081540270287
 30
0.0
 11
136.8499729700849
 21
98.85587618675868
 31
0.0
  0
LINE
  5
253
102
{ACAD_XDICTIONARY
360
251
102
}
330
1F
100
AcDbEntity
  8
CHASSIS
  6
Continuous
 62
     5
420
      255
 48
0.2000000029802322
370
    25
100
AcDbLine
 10
137.6373745448889
 20
103.8172051747237
 30
0.0
 11
137.6373745448889
 21
104.2021210776427
 31
0.0
  0
LINE
  5
256
102
{ACAD_XDICTIONARY
360
254
102
}
330
1F
100
AcDbEntity
  8
CHASSIS
  6
Continuous
 62
     5
420
      255
 48
0.2000000029802322
370
    25
100
AcDbLine
 10
143.7003666708729
 20
103.8172051747237
 30
0.0
 11
143.7003666708729
 21
104.2021210776427
 31
0.0
  0
LINE
  5
259
102
{ACAD_XDICTIONARY
360
257
102
}
330
1F
100
AcDbEntity
  8
CHASSIS
  6
CENTER
 62
     5
420
      255
 48
0.2000000029802322
370
    25
100
AcDbLine
 10
136.8499729700849
 20
104.0081540270287
 30
0.0
 11
147.046823363786
 21
104.0081540270287
 31
0.0
  0
LINE
  5
25C
102
{ACAD_XDICTIONARY
360
25A
102
}
330
1F
100
AcDbEntity
  8
CHASSIS
  6
DASHDOT
 62
     5
420
      255
 48
0.2000000029802322
370
    25
100
AcDbLine
 10
145.5113902929199
 20
102.4338430803257
 30
0.0
 11
145.5113902929199
 21
105.5824649737317
 31
0.0
  0
LINE
  5
25F
102
{ACAD_XDICTIONARY
360
25D
102
}
330
1F
100
AcDbEntity
  8
CHASSIS
  6
Continuous
 62
     5
420
      255
 48
0.2000000029802322
370
    25
100
AcDbLine
 10
141.983831237802
 20
100.7581540270287
 30
0.0
 11
85.98383123780194
 21
80.00815402702867
 31
0.0
  0
LINE
  5
262
102
{ACAD_XDICTIONARY
360
260
102
}
330
1F
100
AcDbEntity
  8
CHASSIS
  6
Continuous
 62
     5
420
      255
 48
0.2000000029802322
370
    25
100
AcDbLine
 10
136.8499729700849
 20
100.4555379041267
 30
0.0
 11
85.71486467526692
 21
81.50815402702867
 31
0.0
  0
LINE
  5
265
102
{ACAD_XDICTIONARY
360
263
102
}
330
1F
100
AcDbEntity
  8
CHASSIS
  6
Continuous
 62
     5
420
      255
 48
0.2000000029802322
370
    25
100
AcDbLine
 10
136.8499729700849
 20
104.0081540270287
 30
0.0
 11
136.8499729700849
 21
109.1604318672987
 31
0.0
  0
LINE
  5
268
102
{ACAD_XDICTIONARY
360
266
102
}
330
1F
100
AcDbEntity
  8
CHASSIS
  6
Continuous
 62
     5
420
      255
 48
0.2000000029802322
370
    25
100
AcDbLine
 10
141.983831237802
 20
107.2581540270287
 30
0.0
 11
85.98383123780194
 21
128.0081540270287
 31
0.0
  0
LINE
  5
26B
102
{ACAD_XDICTIONARY
360
269
102
}
330
1F
100
AcDbEntity
  8
CHASSIS
  6
Continuous
 62
     5
420
      255
 48
0.2000000029802322
370
    25
100
AcDbLine
 10
136.8499729700849
 20
107.5607701499307
 30
0.0
 11
85.71486467526692
 21
126.5081540270287
 31
0.0
  0
LINE
  5
26E
102
{ACAD_XDICTIONARY
360
26C
102
}
330
1F
100
AcDbEntity
  8
CHASSIS
  6
Continuous
 62
     5
420
      255
 48
0.2000000029802322
370
    25
100
AcDbLine
 10
120.9838312378019
 20
92.97690402702867
 30
0.0
 11
120.9838312378019
 21
115.0394040270287
 31
0.0
  0
LINE
  5
271
102
{ACAD_XDICTIONARY
360
26F
102
}
330
1F
100
AcDbEntity
  8
CHASSIS
  6
Continuous
 62
     5
420
      255
 48
0.2000000029802322
370
    25
100
AcDbLine
 10
118.9838312378019
 20
92.23583259845766
 30
0.0
 11
118.9838312378019
 21
115.7804754555997
 31
0.0
  0
LINE
  5
274
102
{ACAD_XDICTIONARY
360
272
102
}
330
1F
100
AcDbEntity
  8
CHASSIS
  6
Continuous
 62
     5
420
      255
 48
0.2000000029802322
370
    25
100
AcDbLine
 10
141.983831237802
 20
105.5829571766347
 30
0.0
 11
141.983831237802
 21
107.2581540270287
 31
0.0
  0
LINE
  5
277
102
{ACAD_XDICTIONARY
360
275
102
}
330
1F
100
AcDbEntity
  8
CHASSIS
  6
Continuous
 62
     5
420
      255
 48
0.2000000029802322
370
    25
100
AcDbLine
 10
141.983831237802
 20
100.7581540270287
 30
0.0
 11
141.983831237802
 21
102.4333508774227
 31
0.0
  0
LWPOLYLINE
  5
27A
102
{ACAD_XDICTIONARY
360
278
102
}
330
1F
100
AcDbEntity
  8
BODY
  6
Continuous
 62
     7
370
     0
100
AcDbPolyline
 90
        4
 70
   129
 43
0.0
 10
-0.0282406759166633
 20
74.09068952363094
 10
113.9717593240833
 20
74.09068952363094
 10
113.9717593240833
 20
134.0906895236309
 10
-0.0282406759166633
 20
134.0906895236309
  0
LWPOLYLINE
  5
27D
102
{ACAD_XDICTIONARY
360
27B
102
}
330
1F
100
AcDbEntity
  8
BASE
  6
Continuous
 62
     1
420
 16711680
370
     0
100
AcDbPolyline
 90
        4
 70
   129
 43
0.0
 10
5.983831237801937
 20
74.09068952363094
 10
7.483831237801937
 20
74.09068952363094
 10
7.483831237801937
 20
134.0906895236309
 10
5.983831237801937
 20
134.0906895236309
  0
LWPOLYLINE
  5
280
102
{ACAD_XDICTIONARY
360
27E
102
}
330
1F
100
AcDbEntity
  8
BASE
  6
Continuous
 62
     1
420
 16711680
370
     0
100
AcDbPolyline
 90
        4
 70
   129
 43
0.0
 10
102.0
 20
74.09068952363094
 10
100.5
 20
74.09068952363094
 10
100.5
 20
134.0906895236309
 10
102.0
 20
134.0906895236309
  0
LWPOLYLINE
  5
283
102
{ACAD_XDICTIONARY
360
281
102
}
330
1F
100
AcDbEntity
  8
BASE
  6
Continuous
 62
     1
420
 16711680
370
     0
100
AcDbPolyline
 90
        4
 70
   129
 43
0.0
 10
7.483831237801937
 20
74.09068952363094
 10
25.02153368475804
 20
74.09068952363094
 10
25.02153368475804
 20
75.59068952363094
 10
7.483831237801937
 20
75.59068952363094
  0
LWPOLYLINE
  5
286
102
{ACAD_XDICTIONARY
360
284
102
}
330
1F
100
AcDbEntity
  8
BASE
  6
Continuous
 62
     1
420
 16711680
370
     0
100
AcDbPolyline
 90
        4
 70
   129
 43
0.0
 10
25.02153368475804
 20
79.93749444991545
 10
7.483831237801937
 20
79.93749444991545
 10
7.483831237801937
 20
81.43749444991545
 10
25.02153368475804
 20
81.43749444991545
  0
LWPOLYLINE
  5
289
102
{ACAD_XDICTIONARY
360
287
102
}
330
1F
100
AcDbEntity
  8
BASE
  6
Continuous
 62
     1
420
 16711680
370
     0
100
AcDbPolyline
 90
        4
 70
   129
 43
0.0
 10
28.03824029452979
 20
74.09068952363094
 10
26.52153368475804
 20
74.09068952363094
 10
26.52153368475804
 20
81.50815402702867
 10
28.03824029452979
 20
81.50815402702867
  0
LWPOLYLINE
  5
28C
102
{ACAD_XDICTIONARY
360
28A
102
}
330
1F
100
AcDbEntity
  8
BASE
  6
Continuous
 62
     1
420
 16711680
370
     0
100
AcDbPolyline
 90
        4
 70
   129
 43
0.0
 10
50.27616942805386
 20
81.50815402702867
 10
100.4838312378019
 20
81.50815402702867
 10
100.4838312378019
 20
80.00815402702867
 10
50.27616942805386
 20
80.00815402702867
  0
LWPOLYLINE
  5
28F
102
{ACAD_XDICTIONARY
360
28D
102
}
330
1F
100
AcDbEntity
  8
BASE
  6
Continuous
 62
     1
420
 16711680
370
     0
100
AcDbPolyline
 90
        4
 70
   129
 43
0.0
 10
50.27616942805386
 20
74.09068952363094
 10
100.5
 20
74.09068952363094
 10
100.5
 20
75.59068952363094
 10
50.27616942805386
 20
75.59068952363094
  0
LWPOLYLINE
  5
292
102
{ACAD_XDICTIONARY
360
290
102
}
330
1F
100
AcDbEntity
  8
BASE
  6
Continuous
 62
     1
420
 16711680
370
     0
100
AcDbPolyline
 90
        4
 70
   129
 43
0.0
 10
47.27554355311137
 20
74.09068952363094
 10
48.77616942805386
 20
74.09068952363094
 10
48.77616942805386
 20
81.50815402702867
 10
47.27554355311137
 20
81.50815402702867
  0
LWPOLYLINE
  5
295
102
{ACAD_XDICTIONARY
360
293
102
}
330
1F
100
AcDbEntity
  8
BASE
  6
Continuous
 62
     1
420
 16711680
370
     0
100
AcDbPolyline
 90
        4
 70
   129
 43
0.0
 10
28.0382402945298
 20
81.50815402702867
 10
47.28002829107065
 20
81.50815402702867
 10
47.28002829107065
 20
80.00815402702867
 10
28.0382402945298
 20
80.00815402702867
  0
LWPOLYLINE
  5
298
102
{ACAD_XDICTIONARY
360
296
102
}
330
1F
100
AcDbEntity
  8
BASE
  6
Continuous
 62
     1
420
 16711680
370
     0
100
AcDbPolyline
 90
        4
 70
   129
 43
0.0
 10
7.483831237801937
 20
134.0906895236309
 10
25.03824029452979
 20
134.0906895236309
 10
25.03824029452979
 20
132.5906895236309
 10
7.483831237801937
 20
132.5906895236309
  0
LWPOLYLINE
  5
29B
102
{ACAD_XDICTIONARY
360
299
102
}
330
1F
100
AcDbEntity
  8
BASE
  6
Continuous
 62
     1
420
 16711680
370
     0
100
AcDbPolyline
 90
        4
 70
   129
 43
0.0
 10
25.03824029452979
 20
126.5081540270287
 10
7.483831237801937
 20
126.5081540270287
 10
7.483831237801937
 20
128.0081540270287
 10
25.03824029452979
 20
128.0081540270287
  0
LWPOLYLINE
  5
29E
102
{ACAD_XDICTIONARY
360
29C
102
}
330
1F
100
AcDbEntity
  8
BASE
  6
Continuous
 62
     1
420
 16711680
370
     0
100
AcDbPolyline
 90
        4
 70
   129
 43
0.0
 10
47.28002829107065
 20
126.5081540270287
 10
48.78002829107065
 20
126.5081540270287
 10
48.78002829107065
 20
134.1076457374907
 10
47.28002829107065
 20
134.1076457374907
  0
LWPOLYLINE
  5
2A1
102
{ACAD_XDICTIONARY
360
29F
102
}
330
1F
100
AcDbEntity
  8
BASE
  6
Continuous
 62
     1
420
 16711680
370
     0
100
AcDbPolyline
 90
        4
 70
   129
 43
0.0
 10
26.53824029452979
 20
134.0906895236309
 10
28.03824029452979
 20
134.0906895236309
 10
28.03824029452979
 20
126.5081540270287
 10
26.53824029452979
 20
126.5081540270287
  0
LWPOLYLINE
  5
2A4
102
{ACAD_XDICTIONARY
360
2A2
102
}
330
1F
100
AcDbEntity
  8
BASE
  6
Continuous
 62
     1
420
 16711680
370
     0
100
AcDbPolyline
 90
        4
 70
   129
 43
0.0
 10
50.28002829107065
 20
134.0906895236309
 10
100.5
 20
134.0906895236309
 10
100.5
 20
132.5906895236309
 10
50.28002829107065
 20
132.5906895236309
  0
LWPOLYLINE
  5
2A7
102
{ACAD_XDICTIONARY
360
2A5
102
}
330
1F
100
AcDbEntity
  8
BASE
  6
Continuous
 62
     1
420
 16711680
370
     0
100
AcDbPolyline
 90
        4
 70
   129
 43
0.0
 10
50.28002829107065
 20
126.5081540270287
 10
100.4838312378019
 20
126.5081540270287
 10
100.4838312378019
 20
128.0081540270287
 10
50.28002829107065
 20
128.0081540270287
  0
LINE
  5
2A8
330
1F
100
AcDbEntity
  8
BODY
  6
Continuous
 62
     7
370
     0
100
AcDbLine
 10
36.99999999999999
 20
74.22901000605101
 30
0.0
 11
36.99999999999999
 21
134.229010006051
 31
0.0
  0
LINE
  5
2A9
330
1F
100
AcDbEntity
  8
BODY
  6
Continuous
 62
     7
370
     0
100
AcDbLine
 10
87.72231789294565
 20
74.09068952363094
 30
0.0
 11
87.72231789294565
 21
134.0906895236309
 31
0.0
  0
LWPOLYLINE
  5
2AC
102
{ACAD_XDICTIONARY
360
2AA
102
}
330
1F
100
AcDbEntity
  8
BASE
  6
Continuous
 62
     1
420
 16711680
370
     0
100
AcDbPolyline
 90
        4
 70
   129
 43
0.0
 10
28.03824029452979
 20
126.5081540270287
 10
47.28604123471327
 20
126.5081540270287
 10
47.28604123471327
 20
128.0081540270287
 10
28.03824029452979
 20
128.0081540270287
  0
LINE
  5
2AD
330
1F
100
AcDbEntity
  8
CHASSIS
  6
Continuous
 62
     5
420
      255
370
     0
100
AcDbLine
 10
38.66600908353107
 20
78.47901000605101
 30
0.0
 11
38.66600908353107
 21
129.7290100060511
 31
0.0
  0
LINE
  5
2AE
330
1F
100
AcDbEntity
  8
CHASSIS
  6
Continuous
 62
     5
420
      255
370
     0
100
AcDbLine
 10
36.66600908353107
 20
78.47901000605101
 30
0.0
 11
36.66600908353107
 21
129.7290100060511
 31
0.0
  0
LWPOLYLINE
  5
2B1
102
{ACAD_XDICTIONARY
360
2AF
102
}
330
1F
100
AcDbEntity
  8
BASE
  6
Continuous
 62
     1
420
 16711680
370
     0
100
AcDbPolyline
 90
        4
 70
   129
 43
0.0
 10
25.03824029452979
 20
134.0906895236309
 10
26.53824029452979
 20
134.0906895236309
 10
26.53824029452979
 20
74.09068952363094
 10
25.03824029452979
 20
74.09068952363094
  0
LWPOLYLINE
  5
2B4
102
{ACAD_XDICTIONARY
360
2B2
102
}
330
1F
100
AcDbEntity
  8
BASE
  6
Continuous
 62
     1
420
 16711680
370
     0
100
AcDbPolyline
 90
        4
 70
   129
 43
0.0
 10
50.28002829107065
 20
134.0906895236309
 10
48.78002829107065
 20
134.0906895236309
 10
48.78002829107065
 20
74.09068952363094
 10
50.28002829107065
 20
74.09068952363094
  0
LWPOLYLINE
  5
2B7
102
{ACAD_XDICTIONARY
360
2B5
102
}
330
1F
100
AcDbEntity
  8
BASE
  6
Continuous
 62
     1
420
 16711680
370
     0
100
AcDbPolyline
 90
        4
 70
   129
 43
0.0
 10
50.2604502245196
 20
104.7581540270287
 10
100.4804502245196
 20
104.7581540270287
 10
100.4804502245196
 20
103.2581540270287
 10
50.2604502245196
 20
103.2581540270287
  0
LINE
  5
2B8
330
1F
100
AcDbEntity
  8
BODY
  6
Continuous
 62
     7
370
     0
100
AcDbLine
 10
5.999999999999993
 20
0.0055319490390815
 30
0.0
 11
28.03692970736326
 21
0.0055319490390815
 31
0.0
  0
LINE
  5
2B9
330
1F
100
AcDbEntity
  8
BODY
  6
Continuous
 62
     7
370
     0
100
AcDbLine
 10
47.27554355311137
 20
-0.0010970938895021
 30
0.0
 11
47.27554355311137
 21
-0.0010970938895021
 31
0.0
  0
LINE
  5
2BA
330
1F
100
AcDbEntity
  8
BODY
  6
Continuous
 62
     7
370
     0
100
AcDbLine
 10
47.27554355311137
 20
-0.0010970938895021
 30
0.0
 11
101.9860090835311
 21
-0.015088010358415
 31
0.0
  0
ELLIPSE
  5
2BD
102
{ACAD_XDICTIONARY
360
2BB
102
}
330
1F
100
AcDbEntity
  8
0
  6
Continuous
 62
     7
370
     0
100
AcDbEllipse
 10
37.65689192382058
 20
0.0022174275747897
 30
0.0
 11
9.618651629290786
 21
-0.003314521463454101
 31
0.0
210
0.0
220
0.0
230
1.0
 40
0.6574015939053812
 41
0.0
 42
3.141592762216552
  0
MTEXT
  5
2C1
102
{ACAD_XDICTIONARY
360
2BF
102
}
330
1F
100
AcDbEntity
  8
0
  6
Continuous
 62
     7
100
AcDbMText
 10
128.7499065387672
 20
67.89936381889851
 30
0.0
 40
6.0
 41
41.10156038112154
 46
0.0
 71
     1
 72
     1
  1
Weekender
  7
_TCW_TXTSTY_2
 73
     1
 44
1.0
  0
MTEXT
  5
2C4
102
{ACAD_XDICTIONARY
360
2C2
102
}
330
1F
100
AcDbEntity
  8
0
  6
Continuous
 62
     7
100
AcDbMText
 10
130.7880004419634
 20
57.55968150169917
 30
0.0
 40
6.0
 41
41.171875
 46
0.0
 71
     1
 72
     1
  1
Modified
  7
_TCW_TXTSTY_2
 73
     1
 44
1.0
  0
LINE
  5
2C7
102
{ACAD_XDICTIONARY
360
2C5
102
}
330
1F
100
AcDbEntity
  8
0
  6
CENTER
 62
     7
 48
0.2000000029802322
370
    25
100
AcDbLine
 10
216.41551868154
 20
-23.47602276381355
 30
0.0
 11
216.41551868154
 21
132.0239772361865
 31
0.0
  0
LINE
  5
2CA
102
{ACAD_XDICTIONARY
360
2C8
102
}
330
1F
100
AcDbEntity
  8
0
  6
Continuous
 62
     7
 48
0.2000000029802322
370
    25
100
AcDbLine
 10
176.41551868154
 20
-17.10102276381355
 30
0.0
 11
256.41551868154
 21
-17.10102276381355
 31
0.0
  0
LINE
  5
2CD
102
{ACAD_XDICTIONARY
360
2CB
102
}
330
1F
100
AcDbEntity
  8
0
  6
Continuous
 62
     7
 48
0.2000000029802322
370
    25
100
AcDbLine
 10
176.41551868154
 20
58.73897723618646
 30
0.0
 11
256.41551868154
 21
58.73897723618646
 31
0.0
  0
LINE
  5
2D0
102
{ACAD_XDICTIONARY
360
2CE
102
}
330
1F
100
AcDbEntity
  8
CHASSIS
  6
Continuous
 62
     5
420
      255
 48
0.2000000029802322
370
    25
100
AcDbLine
 10
190.29051868154
 20
79.05897723618645
 30
0.0
 11
186.54051868154
 21
79.05897723618645
 31
0.0
  0
ARC
  5
2D3
102
{ACAD_XDICTIONARY
360
2D1
102
}
330
1F
100
AcDbEntity
  8
CHASSIS
  6
Continuous
 62
     5
420
      255
 48
0.2000000029802322
370
    25
100
AcDbCircle
 10
190.956118681539
 20
76.89897723618645
 30
0.0
 40
4.915599999998995
100
AcDbArc
 50
153.9332873481678
 51
180.0
  0
ARC
  5
2D6
102
{ACAD_XDICTIONARY
360
2D4
102
}
330
1F
100
AcDbEntity
  8
CHASSIS
  6
Continuous
 62
     5
420
      255
 48
0.2000000029802322
370
    25
100
AcDbCircle
 10
185.874918681541
 20
76.89897723618645
 30
0.0
 40
4.915599999999003
100
AcDbArc
 50
0.0
 51
26.0667126518321
  0
LINE
  5
2D9
102
{ACAD_XDICTIONARY
360
2D7
102
}
330
1F
100
AcDbEntity
  8
CHASSIS
  6
Continuous
 62
     5
420
      255
 48
0.2000000029802322
370
    25
100
AcDbLine
 10
190.79051868154
 20
60.57897723618646
 30
0.0
 11
190.79051868154
 21
76.89897723618645
 31
0.0
  0
LINE
  5
2DC
102
{ACAD_XDICTIONARY
360
2DA
102
}
330
1F
100
AcDbEntity
  8
CHASSIS
  6
Continuous
 62
     5
420
      255
 48
0.2000000029802322
370
    25
100
AcDbLine
 10
186.04051868154
 20
60.57897723618646
 30
0.0
 11
186.04051868154
 21
76.89897723618645
 31
0.0
  0
LINE
  5
2DF
102
{ACAD_XDICTIONARY
360
2DD
102
}
330
1F
100
AcDbEntity
  8
CHASSIS
  6
DASHED
 62
     5
420
      255
 48
0.2000000029802322
370
    25
100
AcDbLine
 10
193.91551868154
 20
73.73897723618646
 30
0.0
 11
193.91551868154
 21
75.73897723618646
 31
0.0
  0
LINE
  5
2E2
102
{ACAD_XDICTIONARY
360
2E0
102
}
330
1F
100
AcDbEntity
  8
CHASSIS
  6
Continuous
 62
     5
420
      255
 48
0.2000000029802322
370
    25
100
AcDbLine
 10
192.41551868154
 20
73.73897723618646
 30
0.0
 11
240.41551868154
 21
73.73897723618646
 31
0.0
  0
LINE
  5
2E5
102
{ACAD_XDICTIONARY
360
2E3
102
}
330
1F
100
AcDbEntity
  8
CHASSIS
  6
Continuous
 62
     5
420
      255
 48
0.2000000029802322
370
    25
100
AcDbLine
 10
192.41551868154
 20
75.73897723618646
 30
0.0
 11
240.41551868154
 21
75.73897723618646
 31
0.0
  0
LINE
  5
2E8
102
{ACAD_XDICTIONARY
360
2E6
102
}
330
1F
100
AcDbEntity
  8
CHASSIS
  6
Continuous
 62
     5
420
      255
 48
0.2000000029802322
370
    25
100
AcDbLine
 10
190.79051868154
 20
67.73897723618646
 30
0.0
 11
242.04051868154
 21
67.73897723618646
 31
0.0
  0
LINE
  5
2EB
102
{ACAD_XDICTIONARY
360
2E9
102
}
330
1F
100
AcDbEntity
  8
CHASSIS
  6
Continuous
 62
     5
420
      255
 48
0.2000000029802322
370
    25
100
AcDbLine
 10
190.79051868154
 20
69.73897723618646
 30
0.0
 11
242.04051868154
 21
69.73897723618646
 31
0.0
  0
LINE
  5
2EE
102
{ACAD_XDICTIONARY
360
2EC
102
}
330
1F
100
AcDbEntity
  8
CHASSIS
  6
DASHED
 62
     5
420
      255
 48
0.2000000029802322
370
    25
100
AcDbLine
 10
238.91551868154
 20
73.73897723618646
 30
0.0
 11
238.91551868154
 21
75.73897723618646
 31
0.0
  0
LINE
  5
2F1
102
{ACAD_XDICTIONARY
360
2EF
102
}
330
1F
100
AcDbEntity
  8
CHASSIS
  6
Continuous
 62
     5
420
      255
 48
0.2000000029802322
370
    25
100
AcDbLine
 10
190.29051868154
 20
58.73897723618646
 30
0.0
 11
190.29051868154
 21
79.05897723618645
 31
0.0
  0
LINE
  5
2F4
102
{ACAD_XDICTIONARY
360
2F2
102
}
330
1F
100
AcDbEntity
  8
CHASSIS
  6
Continuous
 62
     5
420
      255
 48
0.2000000029802322
370
    25
100
AcDbLine
 10
186.54051868154
 20
58.73897723618646
 30
0.0
 11
186.54051868154
 21
79.05897723618645
 31
0.0
  0
ARC
  5
2F7
102
{ACAD_XDICTIONARY
360
2F5
102
}
330
1F
100
AcDbEntity
  8
CHASSIS
  6
Continuous
 62
     5
420
      255
 48
0.2000000029802322
370
    25
100
AcDbCircle
 10
188.442304395826
 20
60.73897723618646
 30
0.0
 40
2.723214285713997
100
AcDbArc
 50
312.7412445386868
 51
30.42474048267899
  0
ARC
  5
2FA
102
{ACAD_XDICTIONARY
360
2F8
102
}
330
1F
100
AcDbEntity
  8
CHASSIS
  6
Continuous
 62
     5
420
      255
 48
0.2000000029802322
370
    25
100
AcDbCircle
 10
188.388732967254
 20
60.73897723618646
 30
0.0
 40
2.723214285713998
100
AcDbArc
 50
149.5752595173211
 51
227.2587554613139
  0
LINE
  5
2FD
102
{ACAD_XDICTIONARY
360
2FB
102
}
330
1F
100
AcDbEntity
  8
CHASSIS
  6
Continuous
 62
     5
420
      255
 48
0.2000000029802322
370
    25
100
AcDbLine
 10
192.41551868154
 20
75.73897723618646
 30
0.0
 11
240.41551868154
 21
75.73897723618646
 31
0.0
  0
LINE
  5
300
102
{ACAD_XDICTIONARY
360
2FE
102
}
330
1F
100
AcDbEntity
  8
CHASSIS
  6
Continuous
 62
     5
420
      255
 48
0.2000000029802322
370
    25
100
AcDbLine
 10
242.54051868154
 20
79.05897723618645
 30
0.0
 11
246.29051868154
 21
79.05897723618645
 31
0.0
  0
ARC
  5
303
102
{ACAD_XDICTIONARY
360
301
102
}
330
1F
100
AcDbEntity
  8
CHASSIS
  6
Continuous
 62
     5
420
      255
 48
0.2000000029802322
370
    25
100
AcDbCircle
 10
241.874918681541
 20
76.89897723618645
 30
0.0
 40
4.915599999999017
100
AcDbArc
 50
0.0
 51
26.06671265183208
  0
ARC
  5
306
102
{ACAD_XDICTIONARY
360
304
102
}
330
1F
100
AcDbEntity
  8
CHASSIS
  6
Continuous
 62
     5
420
      255
 48
0.2000000029802322
370
    25
100
AcDbCircle
 10
246.956118681539
 20
76.89897723618645
 30
0.0
 40
4.915599999999014
100
AcDbArc
 50
153.9332873481678
 51
180.0
  0
LINE
  5
309
102
{ACAD_XDICTIONARY
360
307
102
}
330
1F
100
AcDbEntity
  8
CHASSIS
  6
Continuous
 62
     5
420
      255
 48
0.2000000029802322
370
    25
100
AcDbLine
 10
242.04051868154
 20
60.57897723618646
 30
0.0
 11
242.04051868154
 21
76.89897723618645
 31
0.0
  0
LINE
  5
30C
102
{ACAD_XDICTIONARY
360
30A
102
}
330
1F
100
AcDbEntity
  8
CHASSIS
  6
Continuous
 62
     5
420
      255
 48
0.2000000029802322
370
    25
100
AcDbLine
 10
246.79051868154
 20
60.57897723618646
 30
0.0
 11
246.79051868154
 21
76.89897723618645
 31
0.0
  0
LINE
  5
30F
102
{ACAD_XDICTIONARY
360
30D
102
}
330
1F
100
AcDbEntity
  8
CHASSIS
  6
Continuous
 62
     5
420
      255
 48
0.2000000029802322
370
    25
100
AcDbLine
 10
242.54051868154
 20
58.73897723618646
 30
0.0
 11
242.54051868154
 21
79.05897723618645
 31
0.0
  0
LINE
  5
312
102
{ACAD_XDICTIONARY
360
310
102
}
330
1F
100
AcDbEntity
  8
CHASSIS
  6
Continuous
 62
     5
420
      255
 48
0.2000000029802322
370
    25
100
AcDbLine
 10
246.29051868154
 20
58.73897723618646
 30
0.0
 11
246.29051868154
 21
79.05897723618645
 31
0.0
  0
ARC
  5
315
102
{ACAD_XDICTIONARY
360
313
102
}
330
1F
100
AcDbEntity
  8
CHASSIS
  6
Continuous
 62
     5
420
      255
 48
0.2000000029802322
370
    25
100
AcDbCircle
 10
244.388732967254
 20
60.73897723618646
 30
0.0
 40
2.72321428571401
100
AcDbArc
 50
149.5752595173211
 51
227.2587554613133
  0
ARC
  5
318
102
{ACAD_XDICTIONARY
360
316
102
}
330
1F
100
AcDbEntity
  8
CHASSIS
  6
Continuous
 62
     5
420
      255
 48
0.2000000029802322
370
    25
100
AcDbCircle
 10
244.442304395826
 20
60.73897723618646
 30
0.0
 40
2.723214285714
100
AcDbArc
 50
312.7412445386855
 51
30.42474048267871
  0
LINE
  5
31B
102
{ACAD_XDICTIONARY
360
319
102
}
330
1F
100
AcDbEntity
  8
CHASSIS
  6
Continuous
 62
     5
420
      255
 48
0.2000000029802322
370
    25
100
AcDbLine
 10
219.66551868154
 20
-4.101022763813546
 30
0.0
 11
219.66551868154
 21
-2.101022763813546
 31
0.0
  0
LINE
  5
31E
102
{ACAD_XDICTIONARY
360
31C
102
}
330
1F
100
AcDbEntity
  8
CHASSIS
  6
Continuous
 62
     5
420
      255
 48
0.2000000029802322
370
    25
100
AcDbLine
 10
190.29051868154
 20
3.218977236186454
 30
0.0
 11
186.54051868154
 21
3.218977236186454
 31
0.0
  0
ARC
  5
321
102
{ACAD_XDICTIONARY
360
31F
102
}
330
1F
100
AcDbEntity
  8
CHASSIS
  6
Continuous
 62
     5
420
      255
 48
0.2000000029802322
370
    25
100
AcDbCircle
 10
190.956118681539
 20
1.05897723618645
 30
0.0
 40
4.915599999998994
100
AcDbArc
 50
153.9332873481681
 51
180.0
  0
ARC
  5
324
102
{ACAD_XDICTIONARY
360
322
102
}
330
1F
100
AcDbEntity
  8
CHASSIS
  6
Continuous
 62
     5
420
      255
 48
0.2000000029802322
370
    25
100
AcDbCircle
 10
185.874918681541
 20
1.05897723618645
 30
0.0
 40
4.915599999998996
100
AcDbArc
 50
0.0
 51
26.06671265183194
  0
LINE
  5
327
102
{ACAD_XDICTIONARY
360
325
102
}
330
1F
100
AcDbEntity
  8
CHASSIS
  6
Continuous
 62
     5
420
      255
 48
0.2000000029802322
370
    25
100
AcDbLine
 10
190.79051868154
 20
-15.26102276381355
 30
0.0
 11
190.79051868154
 21
1.05897723618645
 31
0.0
  0
LINE
  5
32A
102
{ACAD_XDICTIONARY
360
328
102
}
330
1F
100
AcDbEntity
  8
CHASSIS
  6
Continuous
 62
     5
420
      255
 48
0.2000000029802322
370
    25
100
AcDbLine
 10
186.04051868154
 20
-15.26102276381355
 30
0.0
 11
186.04051868154
 21
1.05897723618645
 31
0.0
  0
LINE
  5
32D
102
{ACAD_XDICTIONARY
360
32B
102
}
330
1F
100
AcDbEntity
  8
CHASSIS
  6
DASHED
 62
     5
420
      255
 48
0.2000000029802322
370
    25
100
AcDbLine
 10
193.91551868154
 20
-2.101022763813546
 30
0.0
 11
193.91551868154
 21
-0.1010227638135461
 31
0.0
  0
LINE
  5
330
102
{ACAD_XDICTIONARY
360
32E
102
}
330
1F
100
AcDbEntity
  8
CHASSIS
  6
Continuous
 62
     5
420
      255
 48
0.2000000029802322
370
    25
100
AcDbLine
 10
213.16551868154
 20
-4.101022763813546
 30
0.0
 11
213.16551868154
 21
-2.101022763813546
 31
0.0
  0
LINE
  5
333
102
{ACAD_XDICTIONARY
360
331
102
}
330
1F
100
AcDbEntity
  8
CHASSIS
  6
Continuous
 62
     5
420
      255
 48
0.2000000029802322
370
    25
100
AcDbLine
 10
192.41551868154
 20
-4.101022763813546
 30
0.0
 11
240.41551868154
 21
-4.101022763813546
 31
0.0
  0
LINE
  5
336
102
{ACAD_XDICTIONARY
360
334
102
}
330
1F
100
AcDbEntity
  8
CHASSIS
  6
Continuous
 62
     5
420
      255
 48
0.2000000029802322
370
    25
100
AcDbLine
 10
192.41551868154
 20
-2.101022763813546
 30
0.0
 11
240.41551868154
 21
-2.101022763813546
 31
0.0
  0
LINE
  5
339
102
{ACAD_XDICTIONARY
360
337
102
}
330
1F
100
AcDbEntity
  8
CHASSIS
  6
Continuous
 62
     5
420
      255
 48
0.2000000029802322
370
    25
100
AcDbLine
 10
192.41551868154
 20
-0.1010227638135461
 30
0.0
 11
240.41551868154
 21
-0.1010227638135461
 31
0.0
  0
LINE
  5
33C
102
{ACAD_XDICTIONARY
360
33A
102
}
330
1F
100
AcDbEntity
  8
CHASSIS
  6
Continuous
 62
     5
420
      255
 48
0.2000000029802322
370
    25
100
AcDbLine
 10
190.79051868154
 20
-8.101022763813546
 30
0.0
 11
242.04051868154
 21
-8.101022763813546
 31
0.0
  0
LINE
  5
33F
102
{ACAD_XDICTIONARY
360
33D
102
}
330
1F
100
AcDbEntity
  8
CHASSIS
  6
Continuous
 62
     5
420
      255
 48
0.2000000029802322
370
    25
100
AcDbLine
 10
190.79051868154
 20
-6.101022763813546
 30
0.0
 11
242.04051868154
 21
-6.101022763813546
 31
0.0
  0
LINE
  5
342
102
{ACAD_XDICTIONARY
360
340
102
}
330
1F
100
AcDbEntity
  8
CHASSIS
  6
DASHED
 62
     5
420
      255
 48
0.2000000029802322
370
    25
100
AcDbLine
 10
238.91551868154
 20
-2.101022763813546
 30
0.0
 11
238.91551868154
 21
-0.1010227638135461
 31
0.0
  0
LINE
  5
345
102
{ACAD_XDICTIONARY
360
343
102
}
330
1F
100
AcDbEntity
  8
CHASSIS
  6
Continuous
 62
     5
420
      255
 48
0.2000000029802322
370
    25
100
AcDbLine
 10
190.29051868154
 20
-17.10102276381355
 30
0.0
 11
190.29051868154
 21
3.218977236186454
 31
0.0
  0
LINE
  5
348
102
{ACAD_XDICTIONARY
360
346
102
}
330
1F
100
AcDbEntity
  8
CHASSIS
  6
Continuous
 62
     5
420
      255
 48
0.2000000029802322
370
    25
100
AcDbLine
 10
186.54051868154
 20
-17.10102276381355
 30
0.0
 11
186.54051868154
 21
3.218977236186454
 31
0.0
  0
ARC
  5
34B
102
{ACAD_XDICTIONARY
360
349
102
}
330
1F
100
AcDbEntity
  8
CHASSIS
  6
Continuous
 62
     5
420
      255
 48
0.2000000029802322
370
    25
100
AcDbCircle
 10
188.442304395826
 20
-15.10102276381355
 30
0.0
 40
2.723214285713999
100
AcDbArc
 50
312.741244538686
 51
30.42474048267912
  0
ARC
  5
34E
102
{ACAD_XDICTIONARY
360
34C
102
}
330
1F
100
AcDbEntity
  8
CHASSIS
  6
Continuous
 62
     5
420
      255
 48
0.2000000029802322
370
    25
100
AcDbCircle
 10
188.388732967254
 20
-15.10102276381355
 30
0.0
 40
2.723214285713998
100
AcDbArc
 50
149.5752595173209
 51
227.2587554613139
  0
LINE
  5
351
102
{ACAD_XDICTIONARY
360
34F
102
}
330
1F
100
AcDbEntity
  8
CHASSIS
  6
Continuous
 62
     5
420
      255
 48
0.2000000029802322
370
    25
100
AcDbLine
 10
242.54051868154
 20
3.218977236186454
 30
0.0
 11
246.29051868154
 21
3.218977236186454
 31
0.0
  0
ARC
  5
354
102
{ACAD_XDICTIONARY
360
352
102
}
330
1F
100
AcDbEntity
  8
CHASSIS
  6
Continuous
 62
     5
420
      255
 48
0.2000000029802322
370
    25
100
AcDbCircle
 10
241.874918681541
 20
1.05897723618645
 30
0.0
 40
4.91559999999901
100
AcDbArc
 50
0.0
 51
26.06671265183192
  0
ARC
  5
357
102
{ACAD_XDICTIONARY
360
355
102
}
330
1F
100
AcDbEntity
  8
CHASSIS
  6
Continuous
 62
     5
420
      255
 48
0.2000000029802322
370
    25
100
AcDbCircle
 10
246.956118681539
 20
1.05897723618645
 30
0.0
 40
4.915599999999013
100
AcDbArc
 50
153.933287348168
 51
180.0
  0
LINE
  5
35A
102
{ACAD_XDICTIONARY
360
358
102
}
330
1F
100
AcDbEntity
  8
CHASSIS
  6
Continuous
 62
     5
420
      255
 48
0.2000000029802322
370
    25
100
AcDbLine
 10
242.04051868154
 20
-15.26102276381355
 30
0.0
 11
242.04051868154
 21
1.05897723618645
 31
0.0
  0
LINE
  5
35D
102
{ACAD_XDICTIONARY
360
35B
102
}
330
1F
100
AcDbEntity
  8
CHASSIS
  6
Continuous
 62
     5
420
      255
 48
0.2000000029802322
370
    25
100
AcDbLine
 10
246.79051868154
 20
-15.26102276381355
 30
0.0
 11
246.79051868154
 21
1.05897723618645
 31
0.0
  0
LINE
  5
360
102
{ACAD_XDICTIONARY
360
35E
102
}
330
1F
100
AcDbEntity
  8
CHASSIS
  6
Continuous
 62
     5
420
      255
 48
0.2000000029802322
370
    25
100
AcDbLine
 10
242.54051868154
 20
-17.10102276381355
 30
0.0
 11
242.54051868154
 21
3.218977236186454
 31
0.0
  0
LINE
  5
363
102
{ACAD_XDICTIONARY
360
361
102
}
330
1F
100
AcDbEntity
  8
CHASSIS
  6
Continuous
 62
     5
420
      255
 48
0.2000000029802322
370
    25
100
AcDbLine
 10
246.29051868154
 20
-17.10102276381355
 30
0.0
 11
246.29051868154
 21
3.218977236186454
 31
0.0
  0
ARC
  5
366
102
{ACAD_XDICTIONARY
360
364
102
}
330
1F
100
AcDbEntity
  8
CHASSIS
  6
Continuous
 62
     5
420
      255
 48
0.2000000029802322
370
    25
100
AcDbCircle
 10
244.388732967254
 20
-15.10102276381355
 30
0.0
 40
2.72321428571401
100
AcDbArc
 50
149.575259517321
 51
227.2587554613137
  0
ARC
  5
369
102
{ACAD_XDICTIONARY
360
367
102
}
330
1F
100
AcDbEntity
  8
CHASSIS
  6
Continuous
 62
     5
420
      255
 48
0.2000000029802322
370
    25
100
AcDbCircle
 10
244.442304395826
 20
-15.10102276381355
 30
0.0
 40
2.723214285714
100
AcDbArc
 50
312.7412445386855
 51
30.42474048267883
  0
LINE
  5
36C
102
{ACAD_XDICTIONARY
360
36A
102
}
330
1F
100
AcDbEntity
  8
CHASSIS
  6
Continuous
 62
     5
420
      255
 48
0.2000000029802322
370
    25
100
AcDbLine
 10
192.41551868154
 20
71.73897723618646
 30
0.0
 11
193.91551868154
 21
71.73897723618646
 31
0.0
  0
LINE
  5
36F
102
{ACAD_XDICTIONARY
360
36D
102
}
330
1F
100
AcDbEntity
  8
CHASSIS
  6
Continuous
 62
     5
420
      255
 48
0.2000000029802322
370
    25
100
AcDbLine
 10
238.91551868154
 20
71.73897723618646
 30
0.0
 11
240.41551868154
 21
71.73897723618646
 31
0.0
  0
LINE
  5
372
102
{ACAD_XDICTIONARY
360
370
102
}
330
1F
100
AcDbEntity
  8
CHASSIS
  6
Continuous
 62
     5
420
      255
 48
0.2000000029802322
370
    25
100
AcDbLine
 10
193.91551868154
 20
-6.101022763813546
 30
0.0
 11
193.91551868154
 21
-4.101022763813546
 31
0.0
  0
LINE
  5
375
102
{ACAD_XDICTIONARY
360
373
102
}
330
1F
100
AcDbEntity
  8
CHASSIS
  6
Continuous
 62
     5
420
      255
 48
0.2000000029802322
370
    25
100
AcDbLine
 10
192.41551868154
 20
-6.101022763813546
 30
0.0
 11
192.41551868154
 21
-0.1010227638135461
 31
0.0
  0
LINE
  5
378
102
{ACAD_XDICTIONARY
360
376
102
}
330
1F
100
AcDbEntity
  8
CHASSIS
  6
Continuous
 62
     5
420
      255
 48
0.2000000029802322
370
    25
100
AcDbLine
 10
238.91551868154
 20
-6.101022763813546
 30
0.0
 11
238.91551868154
 21
-4.101022763813546
 31
0.0
  0
LINE
  5
37B
102
{ACAD_XDICTIONARY
360
379
102
}
330
1F
100
AcDbEntity
  8
CHASSIS
  6
Continuous
 62
     5
420
      255
 48
0.2000000029802322
370
    25
100
AcDbLine
 10
240.41551868154
 20
-6.101022763813546
 30
0.0
 11
240.41551868154
 21
-0.1010227638135461
 31
0.0
  0
LINE
  5
37E
102
{ACAD_XDICTIONARY
360
37C
102
}
330
1F
100
AcDbEntity
  8
CHASSIS
  6
Continuous
 62
     5
420
      255
 48
0.2000000029802322
370
    25
100
AcDbLine
 10
240.41551868154
 20
69.73897723618646
 30
0.0
 11
240.41551868154
 21
75.73897723618646
 31
0.0
  0
LINE
  5
381
102
{ACAD_XDICTIONARY
360
37F
102
}
330
1F
100
AcDbEntity
  8
CHASSIS
  6
Continuous
 62
     5
420
      255
 48
0.2000000029802322
370
    25
100
AcDbLine
 10
238.91551868154
 20
69.73897723618646
 30
0.0
 11
238.91551868154
 21
73.73897723618646
 31
0.0
  0
LINE
  5
384
102
{ACAD_XDICTIONARY
360
382
102
}
330
1F
100
AcDbEntity
  8
CHASSIS
  6
Continuous
 62
     5
420
      255
 48
0.2000000029802322
370
    25
100
AcDbLine
 10
193.91551868154
 20
69.73897723618646
 30
0.0
 11
193.91551868154
 21
73.73897723618646
 31
0.0
  0
LINE
  5
387
102
{ACAD_XDICTIONARY
360
385
102
}
330
1F
100
AcDbEntity
  8
CHASSIS
  6
Continuous
 62
     5
420
      255
 48
0.2000000029802322
370
    25
100
AcDbLine
 10
192.41551868154
 20
69.73897723618646
 30
0.0
 11
192.41551868154
 21
75.73897723618646
 31
0.0
  0
LWPOLYLINE
  5
38A
102
{ACAD_XDICTIONARY
360
388
102
}
330
1F
100
AcDbEntity
  8
BODY
  6
Continuous
 62
     7
370
     0
100
AcDbPolyline
 90
        4
 70
   129
 43
0.0
 10
186.41551868154
 20
123.7914077363478
 10
246.41551868154
 20
123.7914077363478
 10
246.41551868154
 20
75.79140773634784
 10
186.41551868154
 20
75.79140773634784
  0
LINE
  5
38B
330
1F
100
AcDbEntity
  8
BODY
  6
Continuous
 62
     7
370
     0
100
AcDbLine
 10
186.41551868154
 20
121.3334827180133
 30
0.0
 11
246.41551868154
 21
121.3334827180133
 31
0.0
  0
LINE
  5
38C
330
1F
100
AcDbEntity
  8
BODY
  6
Continuous
 62
     7
370
     0
100
AcDbLine
 10
186.41551868154
 20
108.2305542844301
 30
0.0
 11
246.41551868154
 21
108.2305542844301
 31
0.0
  0
LINE
  5
38D
330
1F
100
AcDbEntity
  8
BODY
  6
Continuous
 62
     7
370
     0
100
AcDbLine
 10
186.41551868154
 20
81.748059633991
 30
0.0
 11
246.41551868154
 21
81.748059633991
 31
0.0
  0
LWPOLYLINE
  5
390
102
{ACAD_XDICTIONARY
360
38E
102
}
330
1F
100
AcDbEntity
  8
BODY
  6
Continuous
 62
     7
370
     0
100
AcDbPolyline
 90
        4
 70
   129
 43
0.0
 10
186.367392672332
 20
47.93770894699693
 10
246.367392672332
 20
47.93770894699693
 10
246.367392672332
 20
-0.062291053003058
 10
186.367392672332
 20
-0.062291053003058
  0
LINE
  5
391
330
1F
100
AcDbEntity
  8
BODY
  6
Continuous
 62
     7
370
     0
100
AcDbLine
 10
186.367392672332
 20
35.23807062733711
 30
0.0
 11
246.367392672332
 21
35.23807062733711
 31
0.0
  0
LINE
  5
392
330
1F
100
AcDbEntity
  8
BODY
  6
Continuous
 62
     7
370
     0
100
AcDbLine
 10
186.367392672332
 20
11.89436084464011
 30
0.0
 11
246.367392672332
 21
11.89436084464011
 31
0.0
  0
LWPOLYLINE
  5
395
102
{ACAD_XDICTIONARY
360
393
102
}
330
1F
100
AcDbEntity
  8
BASE
  6
Continuous
 62
     1
420
 16711680
370
     0
100
AcDbPolyline
 90
        4
 70
   129
 43
0.0
 10
186.367392672332
 20
-0.062291053003058
 10
246.367392672332
 20
-0.062291053003058
 10
246.367392672332
 20
1.437708946996942
 10
186.367392672332
 20
1.437708946996942
  0
LWPOLYLINE
  5
398
102
{ACAD_XDICTIONARY
360
396
102
}
330
1F
100
AcDbEntity
  8
BASE
  6
Continuous
 62
     1
420
 16711680
370
     0
100
AcDbPolyline
 90
        4
 70
   129
 43
0.0
 10
186.54051868154
 20
-0.062291053003058
 10
188.04051868154
 20
-0.062291053003058
 10
188.04051868154
 20
1.437708946996942
 10
186.54051868154
 20
1.437708946996942
  0
LINE
  5
399
330
1F
100
AcDbEntity
  8
BASE
  6
Continuous
 62
     1
420
 16711680
370
     0
100
AcDbLine
 10
186.54051868154
 20
1.437708946996942
 30
0.0
 11
188.04051868154
 21
-0.062291053003058
 31
0.0
  0
LINE
  5
39A
330
1F
100
AcDbEntity
  8
BASE
  6
Continuous
 62
     1
420
 16711680
370
     0
100
AcDbLine
 10
188.04051868154
 20
1.437708946996942
 30
0.0
 11
186.54051868154
 21
-0.0622910530030583
 31
0.0
  0
LWPOLYLINE
  5
39D
102
{ACAD_XDICTIONARY
360
39B
102
}
330
1F
100
AcDbEntity
  8
BASE
  6
Continuous
 62
     1
420
 16711680
370
     0
100
AcDbPolyline
 90
        4
 70
   129
 43
0.0
 10
246.29051868154
 20
-0.062291053003058
 10
244.79051868154
 20
-0.062291053003058
 10
244.79051868154
 20
1.437708946996942
 10
246.29051868154
 20
1.437708946996942
  0
LINE
  5
39E
330
1F
100
AcDbEntity
  8
BASE
  6
Continuous
 62
     1
420
 16711680
370
     0
100
AcDbLine
 10
244.79051868154
 20
1.437708946996942
 30
0.0
 11
246.29051868154
 21
-0.062291053003058
 31
0.0
  0
LINE
  5
39F
330
1F
100
AcDbEntity
  8
BASE
  6
Continuous
 62
     1
420
 16711680
370
     0
100
AcDbLine
 10
246.29051868154
 20
1.437708946996942
 30
0.0
 11
244.79051868154
 21
-0.0622910530030583
 31
0.0
  0
LWPOLYLINE
  5
3A2
102
{ACAD_REACTORS
330
3A5
102
}
102
{ACAD_XDICTIONARY
360
3A0
102
}
330
1F
100
AcDbEntity
  8
BASE
  6
Continuous
 62
     1
420
 16711680
370
     0
100
AcDbPolyline
 90
        4
 70
   129
 43
0.0
 10
238.9221715724525
 20
1.448762755633849
 10
240.4221715724525
 20
1.448762755633849
 10
240.4221715724525
 20
-0.0512372443661508
 10
238.9221715724525
 20
-0.0512372443661508
  0
LINE
  5
3A3
102
{ACAD_REACTORS
330
3A5
102
}
330
1F
100
AcDbEntity
  8
BASE
  6
Continuous
 62
     1
420
 16711680
370
     0
100
AcDbLine
 10
238.9221715724525
 20
1.448762755633849
 30
0.0
 11
240.4221715724525
 21
-0.0512372443661508
 31
0.0
  0
LINE
  5
3A4
102
{ACAD_REACTORS
330
3A5
102
}
330
1F
100
AcDbEntity
  8
BASE
  6
Continuous
 62
     1
420
 16711680
370
     0
100
AcDbLine
 10
240.4221715724525
 20
1.448762755633849
 30
0.0
 11
238.9221715724525
 21
-0.0512372443661508
 31
0.0
  0
LWPOLYLINE
  5
3AA
102
{ACAD_REACTORS
330
3AD
102
}
102
{ACAD_XDICTIONARY
360
3A8
102
}
330
1F
100
AcDbEntity
  8
BASE
  6
Continuous
 62
     1
420
 16711680
370
     0
100
AcDbPolyline
 90
        4
 70
   129
 43
0.0
 10
192.4442791897263
 20
1.448762755633849
 10
193.9442791897263
 20
1.448762755633849
 10
193.9442791897263
 20
-0.0512372443661508
 10
192.4442791897263
 20
-0.0512372443661508
  0
LINE
  5
3AB
102
{ACAD_REACTORS
330
3AD
102
}
330
1F
100
AcDbEntity
  8
BASE
  6
Continuous
 62
     1
420
 16711680
370
     0
100
AcDbLine
 10
192.4442791897263
 20
1.448762755633849
 30
0.0
 11
193.9442791897263
 21
-0.0512372443661508
 31
0.0
  0
LINE
  5
3AC
102
{ACAD_REACTORS
330
3AD
102
}
330
1F
100
AcDbEntity
  8
BASE
  6
Continuous
 62
     1
420
 16711680
370
     0
100
AcDbLine
 10
193.9442791897263
 20
1.448762755633849
 30
0.0
 11
192.4442791897263
 21
-0.0512372443661508
 31
0.0
  0
LWPOLYLINE
  5
3B2
102
{ACAD_REACTORS
330
3B5
102
}
102
{ACAD_XDICTIONARY
360
3B0
102
}
330
1F
100
AcDbEntity
  8
BASE
  6
Continuous
 62
     1
420
 16711680
370
     0
100
AcDbPolyline
 90
        4
 70
   129
 43
0.0
 10
215.617392672332
 20
1.448762755633849
 10
217.117392672332
 20
1.448762755633849
 10
217.117392672332
 20
-0.0512372443661508
 10
215.617392672332
 20
-0.0512372443661508
  0
LINE
  5
3B3
102
{ACAD_REACTORS
330
3B5
102
}
330
1F
100
AcDbEntity
  8
BASE
  6
Continuous
 62
     1
420
 16711680
370
     0
100
AcDbLine
 10
215.617392672332
 20
1.448762755633849
 30
0.0
 11
217.117392672332
 21
-0.0512372443661508
 31
0.0
  0
LINE
  5
3B4
102
{ACAD_REACTORS
330
3B5
102
}
330
1F
100
AcDbEntity
  8
BASE
  6
Continuous
 62
     1
420
 16711680
370
     0
100
AcDbLine
 10
217.117392672332
 20
1.448762755633849
 30
0.0
 11
215.617392672332
 21
-0.0512372443661508
 31
0.0
  0
LWPOLYLINE
  5
3BA
102
{ACAD_XDICTIONARY
360
3B8
102
}
330
1F
100
AcDbEntity
  8
BASE
  6
Continuous
 62
     1
420
 16711680
370
     0
100
AcDbPolyline
 90
        4
 70
   129
 43
0.0
 10
186.367392672332
 20
6.325531949039082
 10
193.9442791897263
 20
6.325531949039082
 10
193.9442791897263
 20
-0.0512372443661508
 10
186.367392672332
 20
-0.0512372443661508
  0
LWPOLYLINE
  5
3BD
102
{ACAD_XDICTIONARY
360
3BB
102
}
330
1F
100
AcDbEntity
  8
BASE
  6
Continuous
 62
     1
420
 16711680
370
     0
100
AcDbPolyline
 90
        4
 70
   129
 43
0.0
 10
246.367392672332
 20
6.325531949039082
 10
238.91551868154
 20
6.325531949039082
 10
238.91551868154
 20
6.825531949039082
 10
246.367392672332
 20
6.825531949039082
  0
LWPOLYLINE
  5
3C0
102
{ACAD_XDICTIONARY
360
3BE
102
}
330
1F
100
AcDbEntity
  8
BASE
  6
Continuous
 62
     1
420
 16711680
370
     0
100
AcDbPolyline
 90
        4
 70
   129
 43
0.0
 10
193.9442791897263
 20
6.325531949039082
 10
186.367392672332
 20
6.325531949039082
 10
186.367392672332
 20
6.825531949039082
 10
193.9442791897263
 20
6.825531949039082
  0
LWPOLYLINE
  5
3C3
102
{ACAD_XDICTIONARY
360
3C1
102
}
330
1F
100
AcDbEntity
  8
BASE
  6
Continuous
 62
     1
420
 16711680
370
     0
100
AcDbPolyline
 90
        4
 70
   129
 43
0.0
 10
193.9442791897263
 20
6.825531949039082
 10
194.0692791897263
 20
6.825531949039082
 10
194.0692791897263
 20
1.949584219476771
 10
193.9442791897263
 20
1.949584219476771
  0
LWPOLYLINE
  5
3C6
102
{ACAD_XDICTIONARY
360
3C4
102
}
330
1F
100
AcDbEntity
  8
BASE
  6
Continuous
 62
     1
420
 16711680
370
     0
100
AcDbPolyline
 90
        4
 70
   129
 43
0.0
 10
238.91551868154
 20
6.825531949039082
 10
238.79051868154
 20
6.825531949039082
 10
238.79051868154
 20
1.949584219476771
 10
238.91551868154
 20
1.949584219476771
  0
LWPOLYLINE
  5
3C9
102
{ACAD_XDICTIONARY
360
3C7
102
}
330
1F
100
AcDbEntity
  8
BASE
  6
Continuous
 62
     1
420
 16711680
370
     0
100
AcDbPolyline
 90
        4
 70
   129
 43
0.0
 10
246.29051868154
 20
-0.062291053003058
 10
238.91551868154
 20
-0.062291053003058
 10
238.91551868154
 20
6.325531949039082
 10
246.29051868154
 20
6.325531949039082
  0
LWPOLYLINE
  5
3CC
102
{ACAD_XDICTIONARY
360
3CA
102
}
330
1F
100
AcDbEntity
  8
BASE
  6
Continuous
 62
     1
420
 16711680
370
     0
100
AcDbPolyline
 90
        4
 70
   129
 43
0.0
 10
186.367392672332
 20
1.437708946996942
 10
246.29051868154
 20
1.437708946996942
 10
246.29051868154
 20
1.937708946996942
 10
186.367392672332
 20
1.937708946996942
  0
LWPOLYLINE
  5
3CF
102
{ACAD_XDICTIONARY
360
3CD
102
}
330
1F
100
AcDbEntity
  8
BASE
  6
Continuous
 62
     1
420
 16711680
370
     0
100
AcDbPolyline
 90
        4
 70
   129
 43
0.0
 10
186.3878987895462
 20
75.7951780568031
 10
246.3878987895462
 20
75.7951780568031
 10
246.3878987895462
 20
77.29517805680308
 10
186.3878987895462
 20
77.29517805680308
  0
LWPOLYLINE
  5
3D2
102
{ACAD_XDICTIONARY
360
3D0
102
}
330
1F
100
AcDbEntity
  8
BASE
  6
Continuous
 62
     1
420
 16711680
370
     0
100
AcDbPolyline
 90
        4
 70
   129
 43
0.0
 10
186.5610247987542
 20
75.7951780568031
 10
188.0610247987542
 20
75.7951780568031
 10
188.0610247987542
 20
77.2951780568031
 10
186.5610247987542
 20
77.2951780568031
  0
LINE
  5
3D3
330
1F
100
AcDbEntity
  8
BASE
  6
Continuous
 62
     1
420
 16711680
370
     0
100
AcDbLine
 10
186.5610247987542
 20
77.2951780568031
 30
0.0
 11
188.0610247987542
 21
75.7951780568031
 31
0.0
  0
LINE
  5
3D4
330
1F
100
AcDbEntity
  8
BASE
  6
Continuous
 62
     1
420
 16711680
370
     0
100
AcDbLine
 10
188.0610247987542
 20
77.2951780568031
 30
0.0
 11
186.5610247987542
 21
75.79517805680308
 31
0.0
  0
LWPOLYLINE
  5
3D7
102
{ACAD_XDICTIONARY
360
3D5
102
}
330
1F
100
AcDbEntity
  8
BASE
  6
Continuous
 62
     1
420
 16711680
370
     0
100
AcDbPolyline
 90
        4
 70
   129
 43
0.0
 10
246.3110247987542
 20
75.7951780568031
 10
244.8110247987542
 20
75.7951780568031
 10
244.8110247987542
 20
77.29517805680308
 10
246.3110247987542
 20
77.29517805680308
  0
LINE
  5
3D8
330
1F
100
AcDbEntity
  8
BASE
  6
Continuous
 62
     1
420
 16711680
370
     0
100
AcDbLine
 10
244.8110247987542
 20
77.2951780568031
 30
0.0
 11
246.3110247987542
 21
75.7951780568031
 31
0.0
  0
LINE
  5
3D9
330
1F
100
AcDbEntity
  8
BASE
  6
Continuous
 62
     1
420
 16711680
370
     0
100
AcDbLine
 10
246.3110247987542
 20
77.2951780568031
 30
0.0
 11
244.8110247987542
 21
75.79517805680308
 31
0.0
  0
LWPOLYLINE
  5
3DC
102
{ACAD_REACTORS
330
3DF
102
}
102
{ACAD_XDICTIONARY
360
3DA
102
}
330
1F
100
AcDbEntity
  8
BASE
  6
Continuous
 62
     1
420
 16711680
370
     0
100
AcDbPolyline
 90
        4
 70
   129
 43
0.0
 10
238.9426776896667
 20
77.30623186544
 10
240.4426776896667
 20
77.30623186544
 10
240.4426776896667
 20
75.80623186544
 10
238.9426776896667
 20
75.80623186544
  0
LINE
  5
3DD
102
{ACAD_REACTORS
330
3DF
102
}
330
1F
100
AcDbEntity
  8
BASE
  6
Continuous
 62
     1
420
 16711680
370
     0
100
AcDbLine
 10
238.9426776896667
 20
77.30623186544
 30
0.0
 11
240.4426776896667
 21
75.80623186544
 31
0.0
  0
LINE
  5
3DE
102
{ACAD_REACTORS
330
3DF
102
}
330
1F
100
AcDbEntity
  8
BASE
  6
Continuous
 62
     1
420
 16711680
370
     0
100
AcDbLine
 10
240.4426776896667
 20
77.30623186544
 30
0.0
 11
238.9426776896667
 21
75.80623186544
 31
0.0
  0
LWPOLYLINE
  5
3E4
102
{ACAD_REACTORS
330
3E7
102
}
102
{ACAD_XDICTIONARY
360
3E2
102
}
330
1F
100
AcDbEntity
  8
BASE
  6
Continuous
 62
     1
420
 16711680
370
     0
100
AcDbPolyline
 90
        4
 70
   129
 43
0.0
 10
192.4647853069405
 20
77.30623186544
 10
193.9647853069405
 20
77.30623186544
 10
193.9647853069405
 20
75.80623186544
 10
192.4647853069405
 20
75.80623186544
  0
LINE
  5
3E5
102
{ACAD_REACTORS
330
3E7
102
}
330
1F
100
AcDbEntity
  8
BASE
  6
Continuous
 62
     1
420
 16711680
370
     0
100
AcDbLine
 10
192.4647853069405
 20
77.30623186544
 30
0.0
 11
193.9647853069405
 21
75.80623186544
 31
0.0
  0
LINE
  5
3E6
102
{ACAD_REACTORS
330
3E7
102
}
330
1F
100
AcDbEntity
  8
BASE
  6
Continuous
 62
     1
420
 16711680
370
     0
100
AcDbLine
 10
193.9647853069405
 20
77.30623186544
 30
0.0
 11
192.4647853069405
 21
75.80623186544
 31
0.0
  0
LWPOLYLINE
  5
3EC
102
{ACAD_REACTORS
330
3EF
102
}
102
{ACAD_XDICTIONARY
360
3EA
102
}
330
1F
100
AcDbEntity
  8
BASE
  6
Continuous
 62
     1
420
 16711680
370
     0
100
AcDbPolyline
 90
        4
 70
   129
 43
0.0
 10
215.6378987895462
 20
77.30623186544
 10
217.1378987895462
 20
77.30623186544
 10
217.1378987895462
 20
75.80623186544
 10
215.6378987895462
 20
75.80623186544
  0
LINE
  5
3ED
102
{ACAD_REACTORS
330
3EF
102
}
330
1F
100
AcDbEntity
  8
BASE
  6
Continuous
 62
     1
420
 16711680
370
     0
100
AcDbLine
 10
215.6378987895462
 20
77.30623186544
 30
0.0
 11
217.1378987895462
 21
75.80623186544
 31
0.0
  0
LINE
  5
3EE
102
{ACAD_REACTORS
330
3EF
102
}
330
1F
100
AcDbEntity
  8
BASE
  6
Continuous
 62
     1
420
 16711680
370
     0
100
AcDbLine
 10
217.1378987895462
 20
77.30623186544
 30
0.0
 11
215.6378987895462
 21
75.80623186544
 31
0.0
  0
LWPOLYLINE
  5
3F4
102
{ACAD_XDICTIONARY
360
3F2
102
}
330
1F
100
AcDbEntity
  8
BASE
  6
Continuous
 62
     1
420
 16711680
370
     0
100
AcDbPolyline
 90
        4
 70
   129
 43
0.0
 10
186.3878987895462
 20
82.18300105884522
 10
193.9647853069405
 20
82.18300105884522
 10
193.9647853069405
 20
75.80623186544
 10
186.3878987895462
 20
75.80623186544
  0
LWPOLYLINE
  5
3F7
102
{ACAD_XDICTIONARY
360
3F5
102
}
330
1F
100
AcDbEntity
  8
BASE
  6
Continuous
 62
     1
420
 16711680
370
     0
100
AcDbPolyline
 90
        4
 70
   129
 43
0.0
 10
246.3878987895462
 20
82.18300105884522
 10
238.9360247987542
 20
82.18300105884522
 10
238.9360247987542
 20
82.68300105884522
 10
246.3878987895462
 20
82.68300105884522
  0
LWPOLYLINE
  5
3FA
102
{ACAD_XDICTIONARY
360
3F8
102
}
330
1F
100
AcDbEntity
  8
BASE
  6
Continuous
 62
     1
420
 16711680
370
     0
100
AcDbPolyline
 90
        4
 70
   129
 43
0.0
 10
193.9647853069405
 20
82.18300105884522
 10
186.3878987895462
 20
82.18300105884522
 10
186.3878987895462
 20
82.68300105884522
 10
193.9647853069405
 20
82.68300105884522
  0
LWPOLYLINE
  5
3FD
102
{ACAD_XDICTIONARY
360
3FB
102
}
330
1F
100
AcDbEntity
  8
BASE
  6
Continuous
 62
     1
420
 16711680
370
     0
100
AcDbPolyline
 90
        4
 70
   129
 43
0.0
 10
193.9647853069405
 20
82.68300105884522
 10
194.0897853069405
 20
82.68300105884522
 10
194.0897853069405
 20
77.80705332928292
 10
193.9647853069405
 20
77.80705332928292
  0
LWPOLYLINE
  5
400
102
{ACAD_XDICTIONARY
360
3FE
102
}
330
1F
100
AcDbEntity
  8
BASE
  6
Continuous
 62
     1
420
 16711680
370
     0
100
AcDbPolyline
 90
        4
 70
   129
 43
0.0
 10
238.9360247987542
 20
82.68300105884522
 10
238.8110247987542
 20
82.68300105884522
 10
238.8110247987542
 20
77.80705332928292
 10
238.9360247987542
 20
77.80705332928292
  0
LWPOLYLINE
  5
403
102
{ACAD_XDICTIONARY
360
401
102
}
330
1F
100
AcDbEntity
  8
BASE
  6
Continuous
 62
     1
420
 16711680
370
     0
100
AcDbPolyline
 90
        4
 70
   129
 43
0.0
 10
246.3110247987542
 20
75.7951780568031
 10
238.9360247987542
 20
75.7951780568031
 10
238.9360247987542
 20
82.18300105884522
 10
246.3110247987542
 20
82.18300105884522
  0
LWPOLYLINE
  5
406
102
{ACAD_XDICTIONARY
360
404
102
}
330
1F
100
AcDbEntity
  8
BASE
  6
Continuous
 62
     1
420
 16711680
370
     0
100
AcDbPolyline
 90
        4
 70
   129
 43
0.0
 10
186.3878987895462
 20
77.2951780568031
 10
246.3110247987542
 20
77.2951780568031
 10
246.3110247987542
 20
77.7951780568031
 10
186.3878987895462
 20
77.7951780568031
  0
VIEWPORT
  5
407
330
1B
100
AcDbEntity
 67
     1
  8
0
100
AcDbViewport
 10
5.5
 20
4.25
 30
0.0
 40
11.0
 41
8.5
 68
     1
 69
     1
 12
5.5
 22
4.25
 13
0.0
 23
0.0
 14
0.25
 24
0.25
 15
0.25
 25
0.25
 16
0.0
 26
0.0
 36
1.0
 17
0.0
 27
0.0
 37
0.0
 42
50.0
 43
0.0
 44
0.0
 45
8.5
 50
0.0
 51
0.0
 72
  1000
 90
    33312
  1

281
     0
 71
     1
 74
     0
110
0.0
120
0.0
130
0.0
111
1.0
121
0.0
131
0.0
112
0.0
122
1.0
132
0.0
 79
     0
146
0.0
170
     0
 61
     5
292
     1
282
     1
141
0.0
142
0.0
 63
   256
  0
VIEWPORT
  5
408
330
1B
100
AcDbEntity
 67
     1
  8
0
  6
Continuous
100
AcDbViewport
 10
5.499999999999999
 20
4.25
 30
0.0
 40
11.0
 41
8.5
 68
     2
 69
     2
 12
110.0
 22
85.0
 13
0.0
 23
0.0
 14
0.5
 24
0.5
 15
0.0
 25
0.0
 16
0.0
 26
0.0
 36
1.0
 17
0.0
 27
0.0
 37
0.0
 42
50.0
 43
0.0
 44
0.0
 45
170.0
 50
0.0
 51
0.0
 72
   100
331
49
331
4A
331
4B
331
4C
331
4D
 90
   557152
  1

281
     0
 71
     1
 74
     0
110
0.0
120
0.0
130
0.0
111
1.0
121
0.0
131
0.0
112
0.0
122
1.0
132
0.0
 79
     0
146
0.0
170
     0
 61
     5
292
     1
282
     1
141
0.0
142
0.0
 63
   256
  0
ENDSEC
  0
SECTION
  2
OBJECTS
  0
DICTIONARY
  5
C
330
0
100
AcDbDictionary
281
     1
  3
ACAD_GROUP
350
D
  3
ACAD_LAYOUT
350
1A
  3
ACAD_MLEADERSTYLE
350
40D
  3
ACAD_MLINESTYLE
350
17
  3
ACAD_PLOTSETTINGS
350
19
  3
ACAD_PLOTSTYLENAME
350
E
  3
ACAD_SCALELIST
350
7C
  3
ACAD_TABLESTYLE
350
52
  3
ACAD_VISUALSTYLE
350
2A
  3
AcDbVariableDictionary
350
409
  0
DICTIONARY
  5
54
330
56
100
AcDbDictionary
280
     1
281
     1
  3
TC_OPTIONAL_DATA
360
55
  0
DICTIONARY
  5
57
330
59
100
AcDbDictionary
280
     1
281
     1
  3
TC_OPTIONAL_DATA
360
58
  0
DICTIONARY
  5
5A
330
5C
100
AcDbDictionary
280
     1
281
     1
  3
TC_OPTIONAL_DATA
360
5B
  0
DICTIONARY
  5
5D
330
5F
100
AcDbDictionary
280
     1
281
     1
  3
TC_OPTIONAL_DATA
360
5E
  0
DICTIONARY
  5
60
330
62
100
AcDbDictionary
280
     1
281
     1
  3
TC_OPTIONAL_DATA
360
61
  0
DICTIONARY
  5
63
330
65
100
AcDbDictionary
280
     1
281
     1
  3
TC_OPTIONAL_DATA
360
64
  0
DICTIONARY
  5
66
330
68
100
AcDbDictionary
280
     1
281
     1
  3
TC_OPTIONAL_DATA
360
67
  0
DICTIONARY
  5
69
330
6B
100
AcDbDictionary
280
     1
281
     1
  3
TC_OPTIONAL_DATA
360
6A
  0
DICTIONARY
  5
6C
330
6E
100
AcDbDictionary
280
     1
281
     1
  3
TC_OPTIONAL_DATA
360
6D
  0
DICTIONARY
  5
6F
330
71
100
AcDbDictionary
280
     1
281
     1
  3
TC_OPTIONAL_DATA
360
70
  0
DICTIONARY
  5
72
330
74
100
AcDbDictionary
280
     1
281
     1
  3
TC_OPTIONAL_DATA
360
73
  0
DICTIONARY
  5
75
330
77
100
AcDbDictionary
280
     1
281
     1
  3
TC_OPTIONAL_DATA
360
76
  0
DICTIONARY
  5
78
330
7A
100
AcDbDictionary
280
     1
281
     1
  3
TC_OPTIONAL_DATA
360
79
  0
DICTIONARY
  5
A0
330
A2
100
AcDbDictionary
280
     1
281
     1
  3
TC_OPTIONAL_DATA
360
A1
  0
DICTIONARY
  5
A3
330
A5
100
AcDbDictionary
280
     1
281
     1
  3
TC_OPTIONAL_DATA
360
A4
  0
DICTIONARY
  5
A6
330
A8
100
AcDbDictionary
280
     1
281
     1
  3
TC_OPTIONAL_DATA
360
A7
  0
DICTIONARY
  5
A9
330
AB
100
AcDbDictionary
280
     1
281
     1
  3
TC_OPTIONAL_DATA
360
AA
  0
DICTIONARY
  5
AC
330
AE
100
AcDbDictionary
280
     1
281
     1
  3
TC_OPTIONAL_DATA
360
AD
  0
DICTIONARY
  5
AF
330
B1
100
AcDbDictionary
280
     1
281
     1
  3
TC_OPTIONAL_DATA
360
B0
  0
DICTIONARY
  5
B2
330
B4
100
AcDbDictionary
280
     1
281
     1
  3
TC_OPTIONAL_DATA
360
B3
  0
DICTIONARY
  5
B5
330
B7
100
AcDbDictionary
280
     1
281
     1
  3
TC_OPTIONAL_DATA
360
B6
  0
DICTIONARY
  5
B8
330
BA
100
AcDbDictionary
280
     1
281
     1
  3
TC_OPTIONAL_DATA
360
B9
  0
DICTIONARY
  5
BB
330
BD
100
AcDbDictionary
280
     1
281
     1
  3
TC_OPTIONAL_DATA
360
BC
  0
DICTIONARY
  5
BE
330
C0
100
AcDbDictionary
280
     1
281
     1
  3
TC_OPTIONAL_DATA
360
BF
  0
DICTIONARY
  5
C1
330
C3
100
AcDbDictionary
280
     1
281
     1
  3
TC_OPTIONAL_DATA
360
C2
  0
DICTIONARY
  5
C4
330
C6
100
AcDbDictionary
280
     1
281
     1
  3
TC_OPTIONAL_DATA
360
C5
  0
DICTIONARY
  5
C7
330
C9
100
AcDbDictionary
280
     1
281
     1
  3
TC_OPTIONAL_DATA
360
C8
  0
DICTIONARY
  5
CA
330
CC
100
AcDbDictionary
280
     1
281
     1
  3
TC_OPTIONAL_DATA
360
CB
  0
DICTIONARY
  5
CD
330
CF
100
AcDbDictionary
280
     1
281
     1
  3
TC_OPTIONAL_DATA
360
CE
  0
DICTIONARY
  5
D0
330
D2
100
AcDbDictionary
280
     1
281
     1
  3
TC_OPTIONAL_DATA
360
D1
  0
DICTIONARY
  5
D3
330
D5
100
AcDbDictionary
280
     1
281
     1
  3
TC_OPTIONAL_DATA
360
D4
  0
DICTIONARY
  5
D6
330
D8
100
AcDbDictionary
280
     1
281
     1
  3
TC_OPTIONAL_DATA
360
D7
  0
DICTIONARY
  5
D9
330
DB
100
AcDbDictionary
280
     1
281
     1
  3
TC_OPTIONAL_DATA
360
DA
  0
DICTIONARY
  5
DC
330
DE
100
AcDbDictionary
280
     1
281
     1
  3
TC_OPTIONAL_DATA
360
DD
  0
DICTIONARY
  5
DF
330
E1
100
AcDbDictionary
280
     1
281
     1
  3
TC_OPTIONAL_DATA
360
E0
  0
DICTIONARY
  5
E2
330
E4
100
AcDbDictionary
280
     1
281
     1
  3
TC_OPTIONAL_DATA
360
E3
  0
DICTIONARY
  5
E5
330
E7
100
AcDbDictionary
280
     1
281
     1
  3
TC_OPTIONAL_DATA
360
E6
  0
DICTIONARY
  5
E8
330
EA
100
AcDbDictionary
280
     1
281
     1
  3
TC_OPTIONAL_DATA
360
E9
  0
DICTIONARY
  5
EB
330
ED
100
AcDbDictionary
280
     1
281
     1
  3
TC_OPTIONAL_DATA
360
EC
  0
DICTIONARY
  5
EE
330
F0
100
AcDbDictionary
280
     1
281
     1
  3
TC_OPTIONAL_DATA
360
EF
  0
DICTIONARY
  5
F1
330
F3
100
AcDbDictionary
280
     1
281
     1
  3
TC_OPTIONAL_DATA
360
F2
  0
DICTIONARY
  5
F4
330
F6
100
AcDbDictionary
280
     1
281
     1
  3
TC_OPTIONAL_DATA
360
F5
  0
DICTIONARY
  5
F7
330
F9
100
AcDbDictionary
280
     1
281
     1
  3
TC_OPTIONAL_DATA
360
F8
  0
DICTIONARY
  5
FA
330
FC
100
AcDbDictionary
280
     1
281
     1
  3
TC_OPTIONAL_DATA
360
FB
  0
DICTIONARY
  5
FD
330
FF
100
AcDbDictionary
280
     1
281
     1
  3
TC_OPTIONAL_DATA
360
FE
  0
DICTIONARY
  5
100
330
102
100
AcDbDictionary
280
     1
281
     1
  3
TC_OPTIONAL_DATA
360
101
  0
DICTIONARY
  5
103
330
105
100
AcDbDictionary
280
     1
281
     1
  3
TC_OPTIONAL_DATA
360
104
  0
DICTIONARY
  5
106
330
108
100
AcDbDictionary
280
     1
281
     1
  3
TC_OPTIONAL_DATA
360
107
  0
DICTIONARY
  5
109
330
10B
100
AcDbDictionary
280
     1
281
     1
  3
TC_OPTIONAL_DATA
360
10A
  0
DICTIONARY
  5
10C
330
10E
100
AcDbDictionary
280
     1
281
     1
  3
TC_OPTIONAL_DATA
360
10D
  0
DICTIONARY
  5
10F
330
111
100
AcDbDictionary
280
     1
281
     1
  3
TC_OPTIONAL_DATA
360
110
  0
DICTIONARY
  5
112
330
114
100
AcDbDictionary
280
     1
281
     1
  3
TC_OPTIONAL_DATA
360
113
  0
DICTIONARY
  5
115
330
117
100
AcDbDictionary
280
     1
281
     1
  3
TC_OPTIONAL_DATA
360
116
  0
DICTIONARY
  5
118
330
11A
100
AcDbDictionary
280
     1
281
     1
  3
TC_OPTIONAL_DATA
360
119
  0
DICTIONARY
  5
11B
330
11D
100
AcDbDictionary
280
     1
281
     1
  3
TC_OPTIONAL_DATA
360
11C
  0
DICTIONARY
  5
11E
330
120
100
AcDbDictionary
280
     1
281
     1
  3
TC_OPTIONAL_DATA
360
11F
  0
DICTIONARY
  5
121
330
123
100
AcDbDictionary
280
     1
281
     1
  3
TC_OPTIONAL_DATA
360
122
  0
DICTIONARY
  5
124
330
126
100
AcDbDictionary
280
     1
281
     1
  3
TC_OPTIONAL_DATA
360
125
  0
DICTIONARY
  5
127
330
129
100
AcDbDictionary
280
     1
281
     1
  3
TC_OPTIONAL_DATA
360
128
  0
DICTIONARY
  5
134
330
136
100
AcDbDictionary
280
     1
281
     1
  3
TC_OPTIONAL_DATA
360
135
  0
DICTIONARY
  5
137
330
139
100
AcDbDictionary
280
     1
281
     1
  3
TC_OPTIONAL_DATA
360
138
  0
DICTIONARY
  5
13C
330
13E
100
AcDbDictionary
280
     1
281
     1
  3
TC_OPTIONAL_DATA
360
13D
  0
DICTIONARY
  5
141
330
143
100
AcDbDictionary
280
     1
281
     1
  3
TC_OPTIONAL_DATA
360
142
  0
DICTIONARY
  5
144
330
146
100
AcDbDictionary
280
     1
281
     1
  3
TC_OPTIONAL_DATA
360
145
  0
DICTIONARY
  5
150
330
152
100
AcDbDictionary
280
     1
281
     1
  3
TC_OPTIONAL_DATA
360
151
  0
DICTIONARY
  5
159
330
15B
100
AcDbDictionary
280
     1
281
     1
  3
TC_OPTIONAL_DATA
360
15A
  0
DICTIONARY
  5
15C
330
15E
100
AcDbDictionary
280
     1
281
     1
  3
TC_OPTIONAL_DATA
360
15D
  0
DICTIONARY
  5
15F
330
161
100
AcDbDictionary
280
     1
281
     1
  3
TC_OPTIONAL_DATA
360
160
  0
DICTIONARY
  5
162
330
164
100
AcDbDictionary
280
     1
281
     1
  3
TC_OPTIONAL_DATA
360
163
  0
DICTIONARY
  5
16A
330
16C
100
AcDbDictionary
280
     1
281
     1
  3
TC_OPTIONAL_DATA
360
16B
  0
DICTIONARY
  5
172
330
174
100
AcDbDictionary
280
     1
281
     1
  3
TC_OPTIONAL_DATA
360
173
  0
DICTIONARY
  5
175
330
177
100
AcDbDictionary
280
     1
281
     1
  3
TC_OPTIONAL_DATA
360
176
  0
DICTIONARY
  5
178
330
17A
100
AcDbDictionary
280
     1
281
     1
  3
TC_OPTIONAL_DATA
360
179
  0
DICTIONARY
  5
17B
330
17D
100
AcDbDictionary
280
     1
281
     1
  3
TC_OPTIONAL_DATA
360
17C
  0
DICTIONARY
  5
17E
330
180
100
AcDbDictionary
280
     1
281
     1
  3
TC_OPTIONAL_DATA
360
17F
  0
DICTIONARY
  5
181
330
183
100
AcDbDictionary
280
     1
281
     1
  3
TC_OPTIONAL_DATA
360
182
  0
DICTIONARY
  5
189
330
18B
100
AcDbDictionary
280
     1
281
     1
  3
TC_OPTIONAL_DATA
360
18A
  0
DICTIONARY
  5
191
330
193
100
AcDbDictionary
280
     1
281
     1
  3
TC_OPTIONAL_DATA
360
192
  0
DICTIONARY
  5
194
330
196
100
AcDbDictionary
280
     1
281
     1
  3
TC_OPTIONAL_DATA
360
195
  0
DICTIONARY
  5
197
330
199
100
AcDbDictionary
280
     1
281
     1
  3
TC_OPTIONAL_DATA
360
198
  0
DICTIONARY
  5
19A
330
19C
100
AcDbDictionary
280
     1
281
     1
  3
TC_OPTIONAL_DATA
360
19B
  0
DICTIONARY
  5
19D
330
19F
100
AcDbDictionary
280
     1
281
     1
  3
TC_OPTIONAL_DATA
360
19E
  0
DICTIONARY
  5
1A0
330
1A2
100
AcDbDictionary
280
     1
281
     1
  3
TC_OPTIONAL_DATA
360
1A1
  0
DICTIONARY
  5
1A3
330
1A5
100
AcDbDictionary
280
     1
281
     1
  3
TC_OPTIONAL_DATA
360
1A4
  0
DICTIONARY
  5
1A6
330
1A8
100
AcDbDictionary
280
     1
281
     1
  3
TC_OPTIONAL_DATA
360
1A7
  0
DICTIONARY
  5
1A9
330
1AB
100
AcDbDictionary
280
     1
281
     1
  3
TC_OPTIONAL_DATA
360
1AA
  0
DICTIONARY
  5
1AC
330
1AE
100
AcDbDictionary
280
     1
281
     1
  3
TC_OPTIONAL_DATA
360
1AD
  0
DICTIONARY
  5
1AF
330
1B1
100
AcDbDictionary
280
     1
281
     1
  3
TC_OPTIONAL_DATA
360
1B0
  0
DICTIONARY
  5
1B2
330
1B4
100
AcDbDictionary
280
     1
281
     1
  3
TC_OPTIONAL_DATA
360
1B3
  0
DICTIONARY
  5
1B5
330
1B7
100
AcDbDictionary
280
     1
281
     1
  3
TC_OPTIONAL_DATA
360
1B6
  0
DICTIONARY
  5
1B8
330
1BA
100
AcDbDictionary
280
     1
281
     1
  3
TC_OPTIONAL_DATA
360
1B9
  0
DICTIONARY
  5
1BB
330
1BD
100
AcDbDictionary
280
     1
281
     1
  3
TC_OPTIONAL_DATA
360
1BC
  0
DICTIONARY
  5
1BE
330
1C0
100
AcDbDictionary
280
     1
281
     1
  3
TC_OPTIONAL_DATA
360
1BF
  0
DICTIONARY
  5
1C1
330
1C3
100
AcDbDictionary
280
     1
281
     1
  3
TC_OPTIONAL_DATA
360
1C2
  0
DICTIONARY
  5
1C4
330
1C6
100
AcDbDictionary
280
     1
281
     1
  3
TC_OPTIONAL_DATA
360
1C5
  0
DICTIONARY
  5
1C7
330
1C9
100
AcDbDictionary
280
     1
281
     1
  3
TC_OPTIONAL_DATA
360
1C8
  0
DICTIONARY
  5
1CA
330
1CC
100
AcDbDictionary
280
     1
281
     1
  3
TC_OPTIONAL_DATA
360
1CB
  0
DICTIONARY
  5
1CD
330
1CF
100
AcDbDictionary
280
     1
281
     1
  3
TC_OPTIONAL_DATA
360
1CE
  0
DICTIONARY
  5
1D0
330
1D2
100
AcDbDictionary
280
     1
281
     1
  3
TC_OPTIONAL_DATA
360
1D1
  0
DICTIONARY
  5
1D3
330
1D5
100
AcDbDictionary
280
     1
281
     1
  3
TC_OPTIONAL_DATA
360
1D4
  0
DICTIONARY
  5
1D6
330
1D8
100
AcDbDictionary
280
     1
281
     1
  3
TC_OPTIONAL_DATA
360
1D7
  0
DICTIONARY
  5
1D9
330
1DB
100
AcDbDictionary
280
     1
281
     1
  3
TC_OPTIONAL_DATA
360
1DA
  0
DICTIONARY
  5
1DC
330
1DE
100
AcDbDictionary
280
     1
281
     1
  3
TC_OPTIONAL_DATA
360
1DD
  0
DICTIONARY
  5
1DF
330
1E1
100
AcDbDictionary
280
     1
281
     1
  3
TC_OPTIONAL_DATA
360
1E0
  0
DICTIONARY
  5
1E2
330
1E4
100
AcDbDictionary
280
     1
281
     1
  3
TC_OPTIONAL_DATA
360
1E3
  0
DICTIONARY
  5
1E5
330
1E7
100
AcDbDictionary
280
     1
281
     1
  3
TC_OPTIONAL_DATA
360
1E6
  0
DICTIONARY
  5
1E8
330
1EA
100
AcDbDictionary
280
     1
281
     1
  3
TC_OPTIONAL_DATA
360
1E9
  0
DICTIONARY
  5
1EB
330
1ED
100
AcDbDictionary
280
     1
281
     1
  3
TC_OPTIONAL_DATA
360
1EC
  0
DICTIONARY
  5
1EE
330
1F0
100
AcDbDictionary
280
     1
281
     1
  3
TC_OPTIONAL_DATA
360
1EF
  0
DICTIONARY
  5
1F1
330
1F3
100
AcDbDictionary
280
     1
281
     1
  3
TC_OPTIONAL_DATA
360
1F2
  0
DICTIONARY
  5
1F4
330
1F6
100
AcDbDictionary
280
     1
281
     1
  3
TC_OPTIONAL_DATA
360
1F5
  0
DICTIONARY
  5
1F7
330
1F9
100
AcDbDictionary
280
     1
281
     1
  3
TC_OPTIONAL_DATA
360
1F8
  0
DICTIONARY
  5
1FA
330
1FC
100
AcDbDictionary
280
     1
281
     1
  3
TC_OPTIONAL_DATA
360
1FB
  0
DICTIONARY
  5
1FD
330
1FF
100
AcDbDictionary
280
     1
281
     1
  3
TC_OPTIONAL_DATA
360
1FE
  0
DICTIONARY
  5
200
330
202
100
AcDbDictionary
280
     1
281
     1
  3
TC_OPTIONAL_DATA
360
201
  0
DICTIONARY
  5
203
330
205
100
AcDbDictionary
280
     1
281
     1
  3
TC_OPTIONAL_DATA
360
204
  0
DICTIONARY
  5
206
330
208
100
AcDbDictionary
280
     1
281
     1
  3
TC_OPTIONAL_DATA
360
207
  0
DICTIONARY
  5
209
330
20B
100
AcDbDictionary
280
     1
281
     1
  3
TC_OPTIONAL_DATA
360
20A
  0
DICTIONARY
  5
20C
330
20E
100
AcDbDictionary
280
     1
281
     1
  3
TC_OPTIONAL_DATA
360
20D
  0
DICTIONARY
  5
20F
330
211
100
AcDbDictionary
280
     1
281
     1
  3
TC_OPTIONAL_DATA
360
210
  0
DICTIONARY
  5
212
330
214
100
AcDbDictionary
280
     1
281
     1
  3
TC_OPTIONAL_DATA
360
213
  0
DICTIONARY
  5
215
330
217
100
AcDbDictionary
280
     1
281
     1
  3
TC_OPTIONAL_DATA
360
216
  0
DICTIONARY
  5
218
330
21A
100
AcDbDictionary
280
     1
281
     1
  3
TC_OPTIONAL_DATA
360
219
  0
DICTIONARY
  5
21B
330
21D
100
AcDbDictionary
280
     1
281
     1
  3
TC_OPTIONAL_DATA
360
21C
  0
DICTIONARY
  5
21E
330
220
100
AcDbDictionary
280
     1
281
     1
  3
TC_OPTIONAL_DATA
360
21F
  0
DICTIONARY
  5
221
330
223
100
AcDbDictionary
280
     1
281
     1
  3
TC_OPTIONAL_DATA
360
222
  0
DICTIONARY
  5
224
330
226
100
AcDbDictionary
280
     1
281
     1
  3
TC_OPTIONAL_DATA
360
225
  0
DICTIONARY
  5
227
330
229
100
AcDbDictionary
280
     1
281
     1
  3
TC_OPTIONAL_DATA
360
228
  0
DICTIONARY
  5
22A
330
22C
100
AcDbDictionary
280
     1
281
     1
  3
TC_OPTIONAL_DATA
360
22B
  0
DICTIONARY
  5
22D
330
22F
100
AcDbDictionary
280
     1
281
     1
  3
TC_OPTIONAL_DATA
360
22E
  0
DICTIONARY
  5
230
330
232
100
AcDbDictionary
280
     1
281
     1
  3
TC_OPTIONAL_DATA
360
231
  0
DICTIONARY
  5
233
330
235
100
AcDbDictionary
280
     1
281
     1
  3
TC_OPTIONAL_DATA
360
234
  0
DICTIONARY
  5
236
330
238
100
AcDbDictionary
280
     1
281
     1
  3
TC_OPTIONAL_DATA
360
237
  0
DICTIONARY
  5
239
330
23B
100
AcDbDictionary
280
     1
281
     1
  3
TC_OPTIONAL_DATA
360
23A
  0
DICTIONARY
  5
23C
330
23E
100
AcDbDictionary
280
     1
281
     1
  3
TC_OPTIONAL_DATA
360
23D
  0
DICTIONARY
  5
23F
330
241
100
AcDbDictionary
280
     1
281
     1
  3
TC_OPTIONAL_DATA
360
240
  0
DICTIONARY
  5
242
330
244
100
AcDbDictionary
280
     1
281
     1
  3
TC_OPTIONAL_DATA
360
243
  0
DICTIONARY
  5
245
330
247
100
AcDbDictionary
280
     1
281
     1
  3
TC_OPTIONAL_DATA
360
246
  0
DICTIONARY
  5
248
330
24A
100
AcDbDictionary
280
     1
281
     1
  3
TC_OPTIONAL_DATA
360
249
  0
DICTIONARY
  5
24B
330
24D
100
AcDbDictionary
280
     1
281
     1
  3
TC_OPTIONAL_DATA
360
24C
  0
DICTIONARY
  5
24E
330
250
100
AcDbDictionary
280
     1
281
     1
  3
TC_OPTIONAL_DATA
360
24F
  0
DICTIONARY
  5
251
330
253
100
AcDbDictionary
280
     1
281
     1
  3
TC_OPTIONAL_DATA
360
252
  0
DICTIONARY
  5
254
330
256
100
AcDbDictionary
280
     1
281
     1
  3
TC_OPTIONAL_DATA
360
255
  0
DICTIONARY
  5
257
330
259
100
AcDbDictionary
280
     1
281
     1
  3
TC_OPTIONAL_DATA
360
258
  0
DICTIONARY
  5
25A
330
25C
100
AcDbDictionary
280
     1
281
     1
  3
TC_OPTIONAL_DATA
360
25B
  0
DICTIONARY
  5
25D
330
25F
100
AcDbDictionary
280
     1
281
     1
  3
TC_OPTIONAL_DATA
360
25E
  0
DICTIONARY
  5
260
330
262
100
AcDbDictionary
280
     1
281
     1
  3
TC_OPTIONAL_DATA
360
261
  0
DICTIONARY
  5
263
330
265
100
AcDbDictionary
280
     1
281
     1
  3
TC_OPTIONAL_DATA
360
264
  0
DICTIONARY
  5
266
330
268
100
AcDbDictionary
280
     1
281
     1
  3
TC_OPTIONAL_DATA
360
267
  0
DICTIONARY
  5
269
330
26B
100
AcDbDictionary
280
     1
281
     1
  3
TC_OPTIONAL_DATA
360
26A
  0
DICTIONARY
  5
26C
330
26E
100
AcDbDictionary
280
     1
281
     1
  3
TC_OPTIONAL_DATA
360
26D
  0
DICTIONARY
  5
26F
330
271
100
AcDbDictionary
280
     1
281
     1
  3
TC_OPTIONAL_DATA
360
270
  0
DICTIONARY
  5
272
330
274
100
AcDbDictionary
280
     1
281
     1
  3
TC_OPTIONAL_DATA
360
273
  0
DICTIONARY
  5
275
330
277
100
AcDbDictionary
280
     1
281
     1
  3
TC_OPTIONAL_DATA
360
276
  0
DICTIONARY
  5
278
330
27A
100
AcDbDictionary
280
     1
281
     1
  3
TC_OPTIONAL_DATA
360
279
  0
DICTIONARY
  5
27B
330
27D
100
AcDbDictionary
280
     1
281
     1
  3
TC_OPTIONAL_DATA
360
27C
  0
DICTIONARY
  5
27E
330
280
100
AcDbDictionary
280
     1
281
     1
  3
TC_OPTIONAL_DATA
360
27F
  0
DICTIONARY
  5
281
330
283
100
AcDbDictionary
280
     1
281
     1
  3
TC_OPTIONAL_DATA
360
282
  0
DICTIONARY
  5
284
330
286
100
AcDbDictionary
280
     1
281
     1
  3
TC_OPTIONAL_DATA
360
285
  0
DICTIONARY
  5
287
330
289
100
AcDbDictionary
280
     1
281
     1
  3
TC_OPTIONAL_DATA
360
288
  0
DICTIONARY
  5
28A
330
28C
100
AcDbDictionary
280
     1
281
     1
  3
TC_OPTIONAL_DATA
360
28B
  0
DICTIONARY
  5
28D
330
28F
100
AcDbDictionary
280
     1
281
     1
  3
TC_OPTIONAL_DATA
360
28E
  0
DICTIONARY
  5
290
330
292
100
AcDbDictionary
280
     1
281
     1
  3
TC_OPTIONAL_DATA
360
291
  0
DICTIONARY
  5
293
330
295
100
AcDbDictionary
280
     1
281
     1
  3
TC_OPTIONAL_DATA
360
294
  0
DICTIONARY
  5
296
330
298
100
AcDbDictionary
280
     1
281
     1
  3
TC_OPTIONAL_DATA
360
297
  0
DICTIONARY
  5
299
330
29B
100
AcDbDictionary
280
     1
281
     1
  3
TC_OPTIONAL_DATA
360
29A
  0
DICTIONARY
  5
29C
330
29E
100
AcDbDictionary
280
     1
281
     1
  3
TC_OPTIONAL_DATA
360
29D
  0
DICTIONARY
  5
29F
330
2A1
100
AcDbDictionary
280
     1
281
     1
  3
TC_OPTIONAL_DATA
360
2A0
  0
DICTIONARY
  5
2A2
330
2A4
100
AcDbDictionary
280
     1
281
     1
  3
TC_OPTIONAL_DATA
360
2A3
  0
DICTIONARY
  5
2A5
330
2A7
100
AcDbDictionary
280
     1
281
     1
  3
TC_OPTIONAL_DATA
360
2A6
  0
DICTIONARY
  5
2AA
330
2AC
100
AcDbDictionary
280
     1
281
     1
  3
TC_OPTIONAL_DATA
360
2AB
  0
DICTIONARY
  5
2AF
330
2B1
100
AcDbDictionary
280
     1
281
     1
  3
TC_OPTIONAL_DATA
360
2B0
  0
DICTIONARY
  5
2B2
330
2B4
100
AcDbDictionary
280
     1
281
     1
  3
TC_OPTIONAL_DATA
360
2B3
  0
DICTIONARY
  5
2B5
330
2B7
100
AcDbDictionary
280
     1
281
     1
  3
TC_OPTIONAL_DATA
360
2B6
  0
DICTIONARY
  5
2BB
330
2BD
100
AcDbDictionary
280
     1
281
     1
  3
TC_OPTIONAL_DATA
360
2BC
  0
DICTIONARY
  5
2BF
330
2C1
100
AcDbDictionary
280
     1
281
     1
  3
TC_OPTIONAL_DATA
360
2C0
  0
DICTIONARY
  5
2C2
330
2C4
100
AcDbDictionary
280
     1
281
     1
  3
TC_OPTIONAL_DATA
360
2C3
  0
DICTIONARY
  5
2C5
330
2C7
100
AcDbDictionary
280
     1
281
     1
  3
TC_OPTIONAL_DATA
360
2C6
  0
DICTIONARY
  5
2C8
330
2CA
100
AcDbDictionary
280
     1
281
     1
  3
TC_OPTIONAL_DATA
360
2C9
  0
DICTIONARY
  5
2CB
330
2CD
100
AcDbDictionary
280
     1
281
     1
  3
TC_OPTIONAL_DATA
360
2CC
  0
DICTIONARY
  5
2CE
330
2D0
100
AcDbDictionary
280
     1
281
     1
  3
TC_OPTIONAL_DATA
360
2CF
  0
DICTIONARY
  5
2D1
330
2D3
100
AcDbDictionary
280
     1
281
     1
  3
TC_OPTIONAL_DATA
360
2D2
  0
DICTIONARY
  5
2D4
330
2D6
100
AcDbDictionary
280
     1
281
     1
  3
TC_OPTIONAL_DATA
360
2D5
  0
DICTIONARY
  5
2D7
330
2D9
100
AcDbDictionary
280
     1
281
     1
  3
TC_OPTIONAL_DATA
360
2D8
  0
DICTIONARY
  5
2DA
330
2DC
100
AcDbDictionary
280
     1
281
     1
  3
TC_OPTIONAL_DATA
360
2DB
  0
DICTIONARY
  5
2DD
330
2DF
100
AcDbDictionary
280
     1
281
     1
  3
TC_OPTIONAL_DATA
360
2DE
  0
DICTIONARY
  5
2E0
330
2E2
100
AcDbDictionary
280
     1
281
     1
  3
TC_OPTIONAL_DATA
360
2E1
  0
DICTIONARY
  5
2E3
330
2E5
100
AcDbDictionary
280
     1
281
     1
  3
TC_OPTIONAL_DATA
360
2E4
  0
DICTIONARY
  5
2E6
330
2E8
100
AcDbDictionary
280
     1
281
     1
  3
TC_OPTIONAL_DATA
360
2E7
  0
DICTIONARY
  5
2E9
330
2EB
100
AcDbDictionary
280
     1
281
     1
  3
TC_OPTIONAL_DATA
360
2EA
  0
DICTIONARY
  5
2EC
330
2EE
100
AcDbDictionary
280
     1
281
     1
  3
TC_OPTIONAL_DATA
360
2ED
  0
DICTIONARY
  5
2EF
330
2F1
100
AcDbDictionary
280
     1
281
     1
  3
TC_OPTIONAL_DATA
360
2F0
  0
DICTIONARY
  5
2F2
330
2F4
100
AcDbDictionary
280
     1
281
     1
  3
TC_OPTIONAL_DATA
360
2F3
  0
DICTIONARY
  5
2F5
330
2F7
100
AcDbDictionary
280
     1
281
     1
  3
TC_OPTIONAL_DATA
360
2F6
  0
DICTIONARY
  5
2F8
330
2FA
100
AcDbDictionary
280
     1
281
     1
  3
TC_OPTIONAL_DATA
360
2F9
  0
DICTIONARY
  5
2FB
330
2FD
100
AcDbDictionary
280
     1
281
     1
  3
TC_OPTIONAL_DATA
360
2FC
  0
DICTIONARY
  5
2FE
330
300
100
AcDbDictionary
280
     1
281
     1
  3
TC_OPTIONAL_DATA
360
2FF
  0
DICTIONARY
  5
301
330
303
100
AcDbDictionary
280
     1
281
     1
  3
TC_OPTIONAL_DATA
360
302
  0
DICTIONARY
  5
304
330
306
100
AcDbDictionary
280
     1
281
     1
  3
TC_OPTIONAL_DATA
360
305
  0
DICTIONARY
  5
307
330
309
100
AcDbDictionary
280
     1
281
     1
  3
TC_OPTIONAL_DATA
360
308
  0
DICTIONARY
  5
30A
330
30C
100
AcDbDictionary
280
     1
281
     1
  3
TC_OPTIONAL_DATA
360
30B
  0
DICTIONARY
  5
30D
330
30F
100
AcDbDictionary
280
     1
281
     1
  3
TC_OPTIONAL_DATA
360
30E
  0
DICTIONARY
  5
310
330
312
100
AcDbDictionary
280
     1
281
     1
  3
TC_OPTIONAL_DATA
360
311
  0
DICTIONARY
  5
313
330
315
100
AcDbDictionary
280
     1
281
     1
  3
TC_OPTIONAL_DATA
360
314
  0
DICTIONARY
  5
316
330
318
100
AcDbDictionary
280
     1
281
     1
  3
TC_OPTIONAL_DATA
360
317
  0
DICTIONARY
  5
319
330
31B
100
AcDbDictionary
280
     1
281
     1
  3
TC_OPTIONAL_DATA
360
31A
  0
DICTIONARY
  5
31C
330
31E
100
AcDbDictionary
280
     1
281
     1
  3
TC_OPTIONAL_DATA
360
31D
  0
DICTIONARY
  5
31F
330
321
100
AcDbDictionary
280
     1
281
     1
  3
TC_OPTIONAL_DATA
360
320
  0
DICTIONARY
  5
322
330
324
100
AcDbDictionary
280
     1
281
     1
  3
TC_OPTIONAL_DATA
360
323
  0
DICTIONARY
  5
325
330
327
100
AcDbDictionary
280
     1
281
     1
  3
TC_OPTIONAL_DATA
360
326
  0
DICTIONARY
  5
328
330
32A
100
AcDbDictionary
280
     1
281
     1
  3
TC_OPTIONAL_DATA
360
329
  0
DICTIONARY
  5
32B
330
32D
100
AcDbDictionary
280
     1
281
     1
  3
TC_OPTIONAL_DATA
360
32C
  0
DICTIONARY
  5
32E
330
330
100
AcDbDictionary
280
     1
281
     1
  3
TC_OPTIONAL_DATA
360
32F
  0
DICTIONARY
  5
331
330
333
100
AcDbDictionary
280
     1
281
     1
  3
TC_OPTIONAL_DATA
360
332
  0
DICTIONARY
  5
334
330
336
100
AcDbDictionary
280
     1
281
     1
  3
TC_OPTIONAL_DATA
360
335
  0
DICTIONARY
  5
337
330
339
100
AcDbDictionary
280
     1
281
     1
  3
TC_OPTIONAL_DATA
360
338
  0
DICTIONARY
  5
33A
330
33C
100
AcDbDictionary
280
     1
281
     1
  3
TC_OPTIONAL_DATA
360
33B
  0
DICTIONARY
  5
33D
330
33F
100
AcDbDictionary
280
     1
281
     1
  3
TC_OPTIONAL_DATA
360
33E
  0
DICTIONARY
  5
340
330
342
100
AcDbDictionary
280
     1
281
     1
  3
TC_OPTIONAL_DATA
360
341
  0
DICTIONARY
  5
343
330
345
100
AcDbDictionary
280
     1
281
     1
  3
TC_OPTIONAL_DATA
360
344
  0
DICTIONARY
  5
346
330
348
100
AcDbDictionary
280
     1
281
     1
  3
TC_OPTIONAL_DATA
360
347
  0
DICTIONARY
  5
349
330
34B
100
AcDbDictionary
280
     1
281
     1
  3
TC_OPTIONAL_DATA
360
34A
  0
DICTIONARY
  5
34C
330
34E
100
AcDbDictionary
280
     1
281
     1
  3
TC_OPTIONAL_DATA
360
34D
  0
DICTIONARY
  5
34F
330
351
100
AcDbDictionary
280
     1
281
     1
  3
TC_OPTIONAL_DATA
360
350
  0
DICTIONARY
  5
352
330
354
100
AcDbDictionary
280
     1
281
     1
  3
TC_OPTIONAL_DATA
360
353
  0
DICTIONARY
  5
355
330
357
100
AcDbDictionary
280
     1
281
     1
  3
TC_OPTIONAL_DATA
360
356
  0
DICTIONARY
  5
358
330
35A
100
AcDbDictionary
280
     1
281
     1
  3
TC_OPTIONAL_DATA
360
359
  0
DICTIONARY
  5
35B
330
35D
100
AcDbDictionary
280
     1
281
     1
  3
TC_OPTIONAL_DATA
360
35C
  0
DICTIONARY
  5
35E
330
360
100
AcDbDictionary
280
     1
281
     1
  3
TC_OPTIONAL_DATA
360
35F
  0
DICTIONARY
  5
361
330
363
100
AcDbDictionary
280
     1
281
     1
  3
TC_OPTIONAL_DATA
360
362
  0
DICTIONARY
  5
364
330
366
100
AcDbDictionary
280
     1
281
     1
  3
TC_OPTIONAL_DATA
360
365
  0
DICTIONARY
  5
367
330
369
100
AcDbDictionary
280
     1
281
     1
  3
TC_OPTIONAL_DATA
360
368
  0
DICTIONARY
  5
36A
330
36C
100
AcDbDictionary
280
     1
281
     1
  3
TC_OPTIONAL_DATA
360
36B
  0
DICTIONARY
  5
36D
330
36F
100
AcDbDictionary
280
     1
281
     1
  3
TC_OPTIONAL_DATA
360
36E
  0
DICTIONARY
  5
370
330
372
100
AcDbDictionary
280
     1
281
     1
  3
TC_OPTIONAL_DATA
360
371
  0
DICTIONARY
  5
373
330
375
100
AcDbDictionary
280
     1
281
     1
  3
TC_OPTIONAL_DATA
360
374
  0
DICTIONARY
  5
376
330
378
100
AcDbDictionary
280
     1
281
     1
  3
TC_OPTIONAL_DATA
360
377
  0
DICTIONARY
  5
379
330
37B
100
AcDbDictionary
280
     1
281
     1
  3
TC_OPTIONAL_DATA
360
37A
  0
DICTIONARY
  5
37C
330
37E
100
AcDbDictionary
280
     1
281
     1
  3
TC_OPTIONAL_DATA
360
37D
  0
DICTIONARY
  5
37F
330
381
100
AcDbDictionary
280
     1
281
     1
  3
TC_OPTIONAL_DATA
360
380
  0
DICTIONARY
  5
382
330
384
100
AcDbDictionary
280
     1
281
     1
  3
TC_OPTIONAL_DATA
360
383
  0
DICTIONARY
  5
385
330
387
100
AcDbDictionary
280
     1
281
     1
  3
TC_OPTIONAL_DATA
360
386
  0
DICTIONARY
  5
388
330
38A
100
AcDbDictionary
280
     1
281
     1
  3
TC_OPTIONAL_DATA
360
389
  0
DICTIONARY
  5
38E
330
390
100
AcDbDictionary
280
     1
281
     1
  3
TC_OPTIONAL_DATA
360
38F
  0
DICTIONARY
  5
393
330
395
100
AcDbDictionary
280
     1
281
     1
  3
TC_OPTIONAL_DATA
360
394
  0
DICTIONARY
  5
396
330
398
100
AcDbDictionary
280
     1
281
     1
  3
TC_OPTIONAL_DATA
360
397
  0
DICTIONARY
  5
39B
330
39D
100
AcDbDictionary
280
     1
281
     1
  3
TC_OPTIONAL_DATA
360
39C
  0
DICTIONARY
  5
3A0
330
3A2
100
AcDbDictionary
280
     1
281
     1
  3
TC_OPTIONAL_DATA
360
3A1
  0
DICTIONARY
  5
3A8
330
3AA
100
AcDbDictionary
280
     1
281
     1
  3
TC_OPTIONAL_DATA
360
3A9
  0
DICTIONARY
  5
3B0
330
3B2
100
AcDbDictionary
280
     1
281
     1
  3
TC_OPTIONAL_DATA
360
3B1
  0
DICTIONARY
  5
3B8
330
3BA
100
AcDbDictionary
280
     1
281
     1
  3
TC_OPTIONAL_DATA
360
3B9
  0
DICTIONARY
  5
3BB
330
3BD
100
AcDbDictionary
280
     1
281
     1
  3
TC_OPTIONAL_DATA
360
3BC
  0
DICTIONARY
  5
3BE
330
3C0
100
AcDbDictionary
280
     1
281
     1
  3
TC_OPTIONAL_DATA
360
3BF
  0
DICTIONARY
  5
3C1
330
3C3
100
AcDbDictionary
280
     1
281
     1
  3
TC_OPTIONAL_DATA
360
3C2
  0
DICTIONARY
  5
3C4
330
3C6
100
AcDbDictionary
280
     1
281
     1
  3
TC_OPTIONAL_DATA
360
3C5
  0
DICTIONARY
  5
3C7
330
3C9
100
AcDbDictionary
280
     1
281
     1
  3
TC_OPTIONAL_DATA
360
3C8
  0
DICTIONARY
  5
3CA
330
3CC
100
AcDbDictionary
280
     1
281
     1
  3
TC_OPTIONAL_DATA
360
3CB
  0
DICTIONARY
  5
3CD
330
3CF
100
AcDbDictionary
280
     1
281
     1
  3
TC_OPTIONAL_DATA
360
3CE
  0
DICTIONARY
  5
3D0
330
3D2
100
AcDbDictionary
280
     1
281
     1
  3
TC_OPTIONAL_DATA
360
3D1
  0
DICTIONARY
  5
3D5
330
3D7
100
AcDbDictionary
280
     1
281
     1
  3
TC_OPTIONAL_DATA
360
3D6
  0
DICTIONARY
  5
3DA
330
3DC
100
AcDbDictionary
280
     1
281
     1
  3
TC_OPTIONAL_DATA
360
3DB
  0
DICTIONARY
  5
3E2
330
3E4
100
AcDbDictionary
280
     1
281
     1
  3
TC_OPTIONAL_DATA
360
3E3
  0
DICTIONARY
  5
3EA
330
3EC
100
AcDbDictionary
280
     1
281
     1
  3
TC_OPTIONAL_DATA
360
3EB
  0
DICTIONARY
  5
3F2
330
3F4
100
AcDbDictionary
280
     1
281
     1
  3
TC_OPTIONAL_DATA
360
3F3
  0
DICTIONARY
  5
3F5
330
3F7
100
AcDbDictionary
280
     1
281
     1
  3
TC_OPTIONAL_DATA
360
3F6
  0
DICTIONARY
  5
3F8
330
3FA
100
AcDbDictionary
280
     1
281
     1
  3
TC_OPTIONAL_DATA
360
3F9
  0
DICTIONARY
  5
3FB
330
3FD
100
AcDbDictionary
280
     1
281
     1
  3
TC_OPTIONAL_DATA
360
3FC
  0
DICTIONARY
  5
3FE
330
400
100
AcDbDictionary
280
     1
281
     1
  3
TC_OPTIONAL_DATA
360
3FF
  0
DICTIONARY
  5
401
330
403
100
AcDbDictionary
280
     1
281
     1
  3
TC_OPTIONAL_DATA
360
402
  0
DICTIONARY
  5
404
330
406
100
AcDbDictionary
280
     1
281
     1
  3
TC_OPTIONAL_DATA
360
405
  0
DICTIONARY
  5
D
102
{ACAD_REACTORS
330
C
102
}
330
C
100
AcDbDictionary
281
     1
  3
Group_2
350
3A5
  3
Group_2_1
350
3AD
  3
Group_2_2
350
3B5
  3
Group_2_3
350
3DF
  3
Group_2_4
350
3E7
  3
Group_2_5
350
3EF
  3
Group_3
350
12A
  3
Group_4
350
167
  3
Group_4_1
350
16F
  3
Group_6
350
186
  3
Group_6_1
350
18E
  0
DICTIONARY
  5
1A
102
{ACAD_REACTORS
330
C
102
}
330
C
100
AcDbDictionary
281
     1
  3
Model
350
22
  3
Paper 1
350
1E
  0
DICTIONARY
  5
40D
102
{ACAD_REACTORS
330
C
102
}
330
C
100
AcDbDictionary
281
     1
  0
DICTIONARY
  5
17
102
{ACAD_REACTORS
330
C
102
}
330
C
100
AcDbDictionary
281
     1
  3
Standard
350
18
  0
DICTIONARY
  5
19
102
{ACAD_REACTORS
330
C
102
}
330
C
100
AcDbDictionary
281
     1
  0
ACDBDICTIONARYWDFLT
  5
E
102
{ACAD_REACTORS
330
C
102
}
330
C
100
AcDbDictionary
281
     1
  3
Normal
350
F
100
AcDbDictionaryWithDefault
340
F
  0
DICTIONARY
  5
7C
102
{ACAD_REACTORS
330
C
102
}
330
C
100
AcDbDictionary
281
     1
  3
A0
350
7D
  3
A1
350
7E
  3
A2
350
7F
  3
A3
350
80
  3
A4
350
81
  3
A5
350
82
  3
A6
350
83
  3
A7
350
84
  3
A8
350
85
  3
A9
350
86
  3
B0
350
87
  3
B1
350
88
  3
B2
350
89
  3
B3
350
8A
  3
B4
350
8B
  3
B5
350
8C
  3
B6
350
8D
  3
B7
350
8E
  3
B8
350
8F
  3
B9
350
90
  3
C0
350
91
  3
C1
350
92
  3
C2
350
93
  3
C3
350
94
  3
C4
350
95
  3
C5
350
96
  3
C6
350
97
  3
C7
350
98
  3
C8
350
99
  3
C9
350
9A
  3
D0
350
9B
  3
D1
350
9C
  3
D2
350
9D
  0
DICTIONARY
  5
52
102
{ACAD_REACTORS
330
C
102
}
330
C
100
AcDbDictionary
281
     1
  3
Standard
350
53
  0
DICTIONARY
  5
2A
102
{ACAD_REACTORS
330
C
102
}
330
C
100
AcDbDictionary
281
     1
  3
2dWireframe
350
2F
  3
3D Hidden
350
31
  3
3dWireframe
350
30
  3
Basic
350
32
  3
Brighten
350
36
  3
ColorChange
350
3A
  3
Conceptual
350
34
  3
Dim
350
35
  3
Facepattern
350
39
  3
Flat
350
2B
  3
FlatWithEdges
350
2C
  3
Gouraud
350
2D
  3
GouraudWithEdges
350
2E
  3
Linepattern
350
38
  3
Realistic
350
33
  3
Thicken
350
37
  0
DICTIONARY
  5
409
102
{ACAD_REACTORS
330
C
102
}
330
C
100
AcDbDictionary
281
     1
  3
CANNOSCALE
350
40A
  0
TCOPTIONALDATA
  5
55
102
{ACAD_REACTORS
330
54
102
}
330
54
100
TcOptionalData
 70
     1
 70
    33
  1
Line/Polyline
 40
0.0099999997764826
  0
TCOPTIONALDATA
  5
58
102
{ACAD_REACTORS
330
57
102
}
330
57
100
TcOptionalData
 70
     1
 70
     1
  1
Line/Polyline
  0
TCOPTIONALDATA
  5
5B
102
{ACAD_REACTORS
330
5A
102
}
330
5A
100
TcOptionalData
 70
     1
 70
    33
  1
Line/Polyline
 40
0.0099999997764826
  0
TCOPTIONALDATA
  5
5E
102
{ACAD_REACTORS
330
5D
102
}
330
5D
100
TcOptionalData
 70
     1
 70
     1
  1
Line/Polyline
  0
TCOPTIONALDATA
  5
61
102
{ACAD_REACTORS
330
60
102
}
330
60
100
TcOptionalData
 70
     1
 70
    33
  1
Line/Polyline
 40
0.0099999997764826
  0
TCOPTIONALDATA
  5
64
102
{ACAD_REACTORS
330
63
102
}
330
63
100
TcOptionalData
 70
     1
 70
     1
  1
Line/Polyline
  0
TCOPTIONALDATA
  5
67
102
{ACAD_REACTORS
330
66
102
}
330
66
100
TcOptionalData
 70
     1
 70
    33
  1
Line/Polyline
 40
0.0099999997764826
  0
TCOPTIONALDATA
  5
6A
102
{ACAD_REACTORS
330
69
102
}
330
69
100
TcOptionalData
 70
     1
 70
     1
  1
Line/Polyline
  0
TCOPTIONALDATA
  5
6D
102
{ACAD_REACTORS
330
6C
102
}
330
6C
100
TcOptionalData
 70
     1
 70
    33
  1
Line/Polyline
 40
0.0099999997764826
  0
TCOPTIONALDATA
  5
70
102
{ACAD_REACTORS
330
6F
102
}
330
6F
100
TcOptionalData
 70
     1
 70
     1
  1
Line/Polyline
  0
TCOPTIONALDATA
  5
73
102
{ACAD_REACTORS
330
72
102
}
330
72
100
TcOptionalData
 70
     1
 70
    33
  1
Line/Polyline
 40
0.0099999997764826
  0
TCOPTIONALDATA
  5
76
102
{ACAD_REACTORS
330
75
102
}
330
75
100
TcOptionalData
 70
     1
 70
     1
  1
Line/Polyline
  0
TCOPTIONALDATA
  5
79
102
{ACAD_REACTORS
330
78
102
}
330
78
100
TcOptionalData
 70
     1
 70
    33
  1
Line/Polyline
 40
0.0099999997764826
  0
TCOPTIONALDATA
  5
A1
102
{ACAD_REACTORS
330
A0
102
}
330
A0
100
TcOptionalData
 70
     1
 70
    33
  1
Line/Polyline
 40
0.0099999997764826
  0
TCOPTIONALDATA
  5
A4
102
{ACAD_REACTORS
330
A3
102
}
330
A3
100
TcOptionalData
 70
     1
 70
    33
  1
Line/Polyline
 40
0.0099999997764826
  0
TCOPTIONALDATA
  5
A7
102
{ACAD_REACTORS
330
A6
102
}
330
A6
100
TcOptionalData
 70
     1
 70
    33
  1
Line/Polyline
 40
0.0099999997764826
  0
TCOPTIONALDATA
  5
AA
102
{ACAD_REACTORS
330
A9
102
}
330
A9
100
TcOptionalData
 70
     1
 70
    33
  1
Line/Polyline
 40
0.0099999997764826
  0
TCOPTIONALDATA
  5
AD
102
{ACAD_REACTORS
330
AC
102
}
330
AC
100
TcOptionalData
 70
     1
 70
    33
  1
Line/Polyline
 40
0.0099999997764826
  0
TCOPTIONALDATA
  5
B0
102
{ACAD_REACTORS
330
AF
102
}
330
AF
100
TcOptionalData
 70
     1
 70
    33
  1
Circle/Arc
 40
0.0099999997764826
  0
TCOPTIONALDATA
  5
B3
102
{ACAD_REACTORS
330
B2
102
}
330
B2
100
TcOptionalData
 70
     1
 70
    33
  1
Circle/Arc
 40
0.0099999997764826
  0
TCOPTIONALDATA
  5
B6
102
{ACAD_REACTORS
330
B5
102
}
330
B5
100
TcOptionalData
 70
     1
 70
    33
  1
Circle/Arc
 40
0.0099999997764826
  0
TCOPTIONALDATA
  5
B9
102
{ACAD_REACTORS
330
B8
102
}
330
B8
100
TcOptionalData
 70
     1
 70
    33
  1
Line/Polyline
 40
0.0099999997764826
  0
TCOPTIONALDATA
  5
BC
102
{ACAD_REACTORS
330
BB
102
}
330
BB
100
TcOptionalData
 70
     1
 70
    33
  1
Line/Polyline
 40
0.0099999997764826
  0
TCOPTIONALDATA
  5
BF
102
{ACAD_REACTORS
330
BE
102
}
330
BE
100
TcOptionalData
 70
     1
 70
    33
  1
Line/Polyline
 40
0.0099999997764826
  0
TCOPTIONALDATA
  5
C2
102
{ACAD_REACTORS
330
C1
102
}
330
C1
100
TcOptionalData
 70
     1
 70
    33
  1
Line/Polyline
 40
0.0099999997764826
  0
TCOPTIONALDATA
  5
C5
102
{ACAD_REACTORS
330
C4
102
}
330
C4
100
TcOptionalData
 70
     1
 70
    32
 40
0.0099999997764826
  0
TCOPTIONALDATA
  5
C8
102
{ACAD_REACTORS
330
C7
102
}
330
C7
100
TcOptionalData
 70
     1
 70
    33
  1
Line/Polyline
 40
0.0099999997764826
  0
TCOPTIONALDATA
  5
CB
102
{ACAD_REACTORS
330
CA
102
}
330
CA
100
TcOptionalData
 70
     1
 70
    33
  1
Line/Polyline
 40
0.0099999997764826
  0
TCOPTIONALDATA
  5
CE
102
{ACAD_REACTORS
330
CD
102
}
330
CD
100
TcOptionalData
 70
     1
 70
    33
  1
Line/Polyline
 40
0.0099999997764826
  0
TCOPTIONALDATA
  5
D1
102
{ACAD_REACTORS
330
D0
102
}
330
D0
100
TcOptionalData
 70
     1
 70
    33
  1
Line/Polyline
 40
0.0099999997764826
  0
TCOPTIONALDATA
  5
D4
102
{ACAD_REACTORS
330
D3
102
}
330
D3
100
TcOptionalData
 70
     1
 70
    33
  1
Line/Polyline
 40
0.0099999997764826
  0
TCOPTIONALDATA
  5
D7
102
{ACAD_REACTORS
330
D6
102
}
330
D6
100
TcOptionalData
 70
     1
 70
    33
  1
Line/Polyline
 40
0.0099999997764826
  0
TCOPTIONALDATA
  5
DA
102
{ACAD_REACTORS
330
D9
102
}
330
D9
100
TcOptionalData
 70
     1
 70
    33
  1
Line/Polyline
 40
0.0099999997764826
  0
TCOPTIONALDATA
  5
DD
102
{ACAD_REACTORS
330
DC
102
}
330
DC
100
TcOptionalData
 70
     1
 70
    33
  1
Line/Polyline
 40
0.0099999997764826
  0
TCOPTIONALDATA
  5
E0
102
{ACAD_REACTORS
330
DF
102
}
330
DF
100
TcOptionalData
 70
     1
 70
    32
 40
0.0099999997764826
  0
TCOPTIONALDATA
  5
E3
102
{ACAD_REACTORS
330
E2
102
}
330
E2
100
TcOptionalData
 70
     1
 70
    32
 40
0.0099999997764826
  0
TCOPTIONALDATA
  5
E6
102
{ACAD_REACTORS
330
E5
102
}
330
E5
100
TcOptionalData
 70
     1
 70
    33
  1
Line/Polyline
 40
0.0099999997764826
  0
TCOPTIONALDATA
  5
E9
102
{ACAD_REACTORS
330
E8
102
}
330
E8
100
TcOptionalData
 70
     1
 70
    33
  1
Line/Polyline
 40
0.0099999997764826
  0
TCOPTIONALDATA
  5
EC
102
{ACAD_REACTORS
330
EB
102
}
330
EB
100
TcOptionalData
 70
     1
 70
    33
  1
Line/Polyline
 40
0.0099999997764826
  0
TCOPTIONALDATA
  5
EF
102
{ACAD_REACTORS
330
EE
102
}
330
EE
100
TcOptionalData
 70
     1
 70
    33
  1
Line/Polyline
 40
0.0099999997764826
  0
TCOPTIONALDATA
  5
F2
102
{ACAD_REACTORS
330
F1
102
}
330
F1
100
TcOptionalData
 70
     1
 70
    33
  1
Line/Polyline
 40
0.0099999997764826
  0
TCOPTIONALDATA
  5
F5
102
{ACAD_REACTORS
330
F4
102
}
330
F4
100
TcOptionalData
 70
     1
 70
    33
  1
Line/Polyline
 40
0.0099999997764826
  0
TCOPTIONALDATA
  5
F8
102
{ACAD_REACTORS
330
F7
102
}
330
F7
100
TcOptionalData
 70
     1
 70
    33
  1
Line/Polyline
 40
0.0099999997764826
  0
TCOPTIONALDATA
  5
FB
102
{ACAD_REACTORS
330
FA
102
}
330
FA
100
TcOptionalData
 70
     1
 70
    33
  1
Line/Polyline
 40
0.0099999997764826
  0
TCOPTIONALDATA
  5
FE
102
{ACAD_REACTORS
330
FD
102
}
330
FD
100
TcOptionalData
 70
     1
 70
    33
  1
Line/Polyline
 40
0.0099999997764826
  0
TCOPTIONALDATA
  5
101
102
{ACAD_REACTORS
330
100
102
}
330
100
100
TcOptionalData
 70
     1
 70
    33
  1
Line/Polyline
 40
0.0099999997764826
  0
TCOPTIONALDATA
  5
104
102
{ACAD_REACTORS
330
103
102
}
330
103
100
TcOptionalData
 70
     1
 70
    33
  1
Line/Polyline
 40
0.0099999997764826
  0
TCOPTIONALDATA
  5
107
102
{ACAD_REACTORS
330
106
102
}
330
106
100
TcOptionalData
 70
     1
 70
    33
  1
Line/Polyline
 40
0.0099999997764826
  0
TCOPTIONALDATA
  5
10A
102
{ACAD_REACTORS
330
109
102
}
330
109
100
TcOptionalData
 70
     1
 70
    33
  1
Line/Polyline
 40
0.0099999997764826
  0
TCOPTIONALDATA
  5
10D
102
{ACAD_REACTORS
330
10C
102
}
330
10C
100
TcOptionalData
 70
     1
 70
    33
  1
Line/Polyline
 40
0.0099999997764826
  0
TCOPTIONALDATA
  5
110
102
{ACAD_REACTORS
330
10F
102
}
330
10F
100
TcOptionalData
 70
     1
 70
    33
  1
Line/Polyline
 40
0.0099999997764826
  0
TCOPTIONALDATA
  5
113
102
{ACAD_REACTORS
330
112
102
}
330
112
100
TcOptionalData
 70
     1
 70
    33
  1
Line/Polyline
 40
0.0099999997764826
  0
TCOPTIONALDATA
  5
116
102
{ACAD_REACTORS
330
115
102
}
330
115
100
TcOptionalData
 70
     1
 70
    33
  1
Line/Polyline
 40
0.0099999997764826
  0
TCOPTIONALDATA
  5
119
102
{ACAD_REACTORS
330
118
102
}
330
118
100
TcOptionalData
 70
     1
 70
    33
  1
Line/Polyline
 40
0.0099999997764826
  0
TCOPTIONALDATA
  5
11C
102
{ACAD_REACTORS
330
11B
102
}
330
11B
100
TcOptionalData
 70
     1
 70
    33
  1
Line/Polyline
 40
0.0099999997764826
  0
TCOPTIONALDATA
  5
11F
102
{ACAD_REACTORS
330
11E
102
}
330
11E
100
TcOptionalData
 70
     1
 70
    33
  1
Line/Polyline
 40
0.0099999997764826
  0
TCOPTIONALDATA
  5
122
102
{ACAD_REACTORS
330
121
102
}
330
121
100
TcOptionalData
 70
     1
 70
    33
  1
Line/Polyline
 40
0.0099999997764826
  0
TCOPTIONALDATA
  5
125
102
{ACAD_REACTORS
330
124
102
}
330
124
100
TcOptionalData
 70
     1
 70
    33
  1
Circle/Arc
 40
0.0099999997764826
  0
TCOPTIONALDATA
  5
128
102
{ACAD_REACTORS
330
127
102
}
330
127
100
TcOptionalData
 70
     1
 70
    33
  1
Circle/Arc
 40
0.0099999997764826
  0
TCOPTIONALDATA
  5
135
102
{ACAD_REACTORS
330
134
102
}
330
134
100
TcOptionalData
 70
     1
 70
   128
 90
        1
  1
#$AUX@_ToolInfo Properties
 70
     8
  1
CMD_FILLETARC@
  0
TCOPTIONALDATA
  5
138
102
{ACAD_REACTORS
330
137
102
}
330
137
100
TcOptionalData
 70
     1
 70
   128
 90
        1
  1
#$AUX@_ToolInfo Properties
 70
     8
  1
CMD_AC_RECTANGLE@
  0
TCOPTIONALDATA
  5
13D
102
{ACAD_REACTORS
330
13C
102
}
330
13C
100
TcOptionalData
 70
     1
 70
   128
 90
        1
  1
#$AUX@_ToolInfo Properties
 70
     8
  1
CMD_AC_RECTANGLE@
  0
TCOPTIONALDATA
  5
142
102
{ACAD_REACTORS
330
141
102
}
330
141
100
TcOptionalData
 70
     1
 70
   128
 90
        1
  1
#$AUX@_ToolInfo Properties
 70
     8
  1
CMD_AC_RECTANGLE@
  0
TCOPTIONALDATA
  5
145
102
{ACAD_REACTORS
330
144
102
}
330
144
100
TcOptionalData
 70
     1
 70
   128
 90
        1
  1
#$AUX@_ToolInfo Properties
 70
     8
  1
CMD_AC_RECTANGLE@
  0
TCOPTIONALDATA
  5
151
102
{ACAD_REACTORS
330
150
102
}
330
150
100
TcOptionalData
 70
     1
 70
   128
 90
        1
  1
#$AUX@_ToolInfo Properties
 70
     8
  1
CMD_AC_RECTANGLE@
  0
TCOPTIONALDATA
  5
15A
102
{ACAD_REACTORS
330
159
102
}
330
159
100
TcOptionalData
 70
     1
 70
   128
 90
        1
  1
#$AUX@_ToolInfo Properties
 70
     8
  1
CMD_AC_RECTANGLE@
  0
TCOPTIONALDATA
  5
15D
102
{ACAD_REACTORS
330
15C
102
}
330
15C
100
TcOptionalData
 70
     1
 70
   128
 90
        1
  1
#$AUX@_ToolInfo Properties
 70
     8
  1
CMD_AC_RECTANGLE@
  0
TCOPTIONALDATA
  5
160
102
{ACAD_REACTORS
330
15F
102
}
330
15F
100
TcOptionalData
 70
     1
 70
   128
 90
        1
  1
#$AUX@_ToolInfo Properties
 70
     8
  1
CMD_AC_RECTANGLE@
  0
TCOPTIONALDATA
  5
163
102
{ACAD_REACTORS
330
162
102
}
330
162
100
TcOptionalData
 70
     1
 70
   128
 90
        1
  1
#$AUX@_ToolInfo Properties
 70
     8
  1
CMD_AC_RECTANGLE@
  0
TCOPTIONALDATA
  5
16B
102
{ACAD_REACTORS
330
16A
102
}
330
16A
100
TcOptionalData
 70
     1
 70
   128
 90
        1
  1
#$AUX@_ToolInfo Properties
 70
     8
  1
CMD_AC_RECTANGLE@
  0
TCOPTIONALDATA
  5
173
102
{ACAD_REACTORS
330
172
102
}
330
172
100
TcOptionalData
 70
     1
 70
   128
 90
        1
  1
#$AUX@_ToolInfo Properties
 70
     8
  1
CMD_AC_RECTANGLE@
  0
TCOPTIONALDATA
  5
176
102
{ACAD_REACTORS
330
175
102
}
330
175
100
TcOptionalData
 70
     1
 70
   128
 90
        1
  1
#$AUX@_ToolInfo Properties
 70
     8
  1
CMD_AC_RECTANGLE@
  0
TCOPTIONALDATA
  5
179
102
{ACAD_REACTORS
330
178
102
}
330
178
100
TcOptionalData
 70
     1
 70
   128
 90
        1
  1
#$AUX@_ToolInfo Properties
 70
     8
  1
CMD_AC_RECTANGLE@
  0
TCOPTIONALDATA
  5
17C
102
{ACAD_REACTORS
330
17B
102
}
330
17B
100
TcOptionalData
 70
     1
 70
   128
 90
        1
  1
#$AUX@_ToolInfo Properties
 70
     8
  1
CMD_AC_RECTANGLE@
  0
TCOPTIONALDATA
  5
17F
102
{ACAD_REACTORS
330
17E
102
}
330
17E
100
TcOptionalData
 70
     1
 70
   128
 90
        1
  1
#$AUX@_ToolInfo Properties
 70
     8
  1
CMD_AC_RECTANGLE@
  0
TCOPTIONALDATA
  5
182
102
{ACAD_REACTORS
330
181
102
}
330
181
100
TcOptionalData
 70
     1
 70
   128
 90
        1
  1
#$AUX@_ToolInfo Properties
 70
     8
  1
CMD_AC_RECTANGLE@
  0
TCOPTIONALDATA
  5
18A
102
{ACAD_REACTORS
330
189
102
}
330
189
100
TcOptionalData
 70
     1
 70
   128
 90
        1
  1
#$AUX@_ToolInfo Properties
 70
     8
  1
CMD_AC_RECTANGLE@
  0
TCOPTIONALDATA
  5
192
102
{ACAD_REACTORS
330
191
102
}
330
191
100
TcOptionalData
 70
     1
 70
    33
  1
Line/Polyline
 40
0.0099999997764826
  0
TCOPTIONALDATA
  5
195
102
{ACAD_REACTORS
330
194
102
}
330
194
100
TcOptionalData
 70
     1
 70
    33
  1
Line/Polyline
 40
0.0099999997764826
  0
TCOPTIONALDATA
  5
198
102
{ACAD_REACTORS
330
197
102
}
330
197
100
TcOptionalData
 70
     1
 70
    33
  1
Line/Polyline
 40
0.0099999997764826
  0
TCOPTIONALDATA
  5
19B
102
{ACAD_REACTORS
330
19A
102
}
330
19A
100
TcOptionalData
 70
     1
 70
    33
  1
Line/Polyline
 40
0.0099999997764826
  0
TCOPTIONALDATA
  5
19E
102
{ACAD_REACTORS
330
19D
102
}
330
19D
100
TcOptionalData
 70
     1
 70
    33
  1
Line/Polyline
 40
0.0099999997764826
  0
TCOPTIONALDATA
  5
1A1
102
{ACAD_REACTORS
330
1A0
102
}
330
1A0
100
TcOptionalData
 70
     1
 70
    33
  1
Line/Polyline
 40
0.0099999997764826
  0
TCOPTIONALDATA
  5
1A4
102
{ACAD_REACTORS
330
1A3
102
}
330
1A3
100
TcOptionalData
 70
     1
 70
    33
  1
Line/Polyline
 40
0.0099999997764826
  0
TCOPTIONALDATA
  5
1A7
102
{ACAD_REACTORS
330
1A6
102
}
330
1A6
100
TcOptionalData
 70
     1
 70
    33
  1
Line/Polyline
 40
0.0099999997764826
  0
TCOPTIONALDATA
  5
1AA
102
{ACAD_REACTORS
330
1A9
102
}
330
1A9
100
TcOptionalData
 70
     1
 70
    33
  1
Line/Polyline
 40
0.0099999997764826
  0
TCOPTIONALDATA
  5
1AD
102
{ACAD_REACTORS
330
1AC
102
}
330
1AC
100
TcOptionalData
 70
     1
 70
    33
  1
Line/Polyline
 40
0.0099999997764826
  0
TCOPTIONALDATA
  5
1B0
102
{ACAD_REACTORS
330
1AF
102
}
330
1AF
100
TcOptionalData
 70
     1
 70
    33
  1
Line/Polyline
 40
0.0099999997764826
  0
TCOPTIONALDATA
  5
1B3
102
{ACAD_REACTORS
330
1B2
102
}
330
1B2
100
TcOptionalData
 70
     1
 70
    33
  1
Line/Polyline
 40
0.0099999997764826
  0
TCOPTIONALDATA
  5
1B6
102
{ACAD_REACTORS
330
1B5
102
}
330
1B5
100
TcOptionalData
 70
     1
 70
    33
  1
Line/Polyline
 40
0.0099999997764826
  0
TCOPTIONALDATA
  5
1B9
102
{ACAD_REACTORS
330
1B8
102
}
330
1B8
100
TcOptionalData
 70
     1
 70
    33
  1
Line/Polyline
 40
0.0099999997764826
  0
TCOPTIONALDATA
  5
1BC
102
{ACAD_REACTORS
330
1BB
102
}
330
1BB
100
TcOptionalData
 70
     1
 70
    33
  1
Line/Polyline
 40
0.0099999997764826
  0
TCOPTIONALDATA
  5
1BF
102
{ACAD_REACTORS
330
1BE
102
}
330
1BE
100
TcOptionalData
 70
     1
 70
    33
  1
Line/Polyline
 40
0.0099999997764826
  0
TCOPTIONALDATA
  5
1C2
102
{ACAD_REACTORS
330
1C1
102
}
330
1C1
100
TcOptionalData
 70
     1
 70
    33
  1
Line/Polyline
 40
0.0099999997764826
  0
TCOPTIONALDATA
  5
1C5
102
{ACAD_REACTORS
330
1C4
102
}
330
1C4
100
TcOptionalData
 70
     1
 70
    33
  1
Line/Polyline
 40
0.0099999997764826
  0
TCOPTIONALDATA
  5
1C8
102
{ACAD_REACTORS
330
1C7
102
}
330
1C7
100
TcOptionalData
 70
     1
 70
    33
  1
Line/Polyline
 40
0.0099999997764826
  0
TCOPTIONALDATA
  5
1CB
102
{ACAD_REACTORS
330
1CA
102
}
330
1CA
100
TcOptionalData
 70
     1
 70
    33
  1
Line/Polyline
 40
0.0099999997764826
  0
TCOPTIONALDATA
  5
1CE
102
{ACAD_REACTORS
330
1CD
102
}
330
1CD
100
TcOptionalData
 70
     1
 70
    33
  1
Line/Polyline
 40
0.0099999997764826
  0
TCOPTIONALDATA
  5
1D1
102
{ACAD_REACTORS
330
1D0
102
}
330
1D0
100
TcOptionalData
 70
     1
 70
    33
  1
Line/Polyline
 40
0.0099999997764826
  0
TCOPTIONALDATA
  5
1D4
102
{ACAD_REACTORS
330
1D3
102
}
330
1D3
100
TcOptionalData
 70
     1
 70
    33
  1
Circle/Arc
 40
0.0099999997764826
  0
TCOPTIONALDATA
  5
1D7
102
{ACAD_REACTORS
330
1D6
102
}
330
1D6
100
TcOptionalData
 70
     1
 70
    33
  1
Circle/Arc
 40
0.0099999997764826
  0
TCOPTIONALDATA
  5
1DA
102
{ACAD_REACTORS
330
1D9
102
}
330
1D9
100
TcOptionalData
 70
     1
 70
    33
  1
Line/Polyline
 40
0.0099999997764826
  0
TCOPTIONALDATA
  5
1DD
102
{ACAD_REACTORS
330
1DC
102
}
330
1DC
100
TcOptionalData
 70
     1
 70
    33
  1
Circle/Arc
 40
0.0099999997764826
  0
TCOPTIONALDATA
  5
1E0
102
{ACAD_REACTORS
330
1DF
102
}
330
1DF
100
TcOptionalData
 70
     1
 70
    33
  1
Circle/Arc
 40
0.0099999997764826
  0
TCOPTIONALDATA
  5
1E3
102
{ACAD_REACTORS
330
1E2
102
}
330
1E2
100
TcOptionalData
 70
     1
 70
    33
  1
Line/Polyline
 40
0.0099999997764826
  0
TCOPTIONALDATA
  5
1E6
102
{ACAD_REACTORS
330
1E5
102
}
330
1E5
100
TcOptionalData
 70
     1
 70
    33
  1
Line/Polyline
 40
0.0099999997764826
  0
TCOPTIONALDATA
  5
1E9
102
{ACAD_REACTORS
330
1E8
102
}
330
1E8
100
TcOptionalData
 70
     1
 70
    33
  1
Line/Polyline
 40
0.0099999997764826
  0
TCOPTIONALDATA
  5
1EC
102
{ACAD_REACTORS
330
1EB
102
}
330
1EB
100
TcOptionalData
 70
     1
 70
    33
  1
Line/Polyline
 40
0.0099999997764826
  0
TCOPTIONALDATA
  5
1EF
102
{ACAD_REACTORS
330
1EE
102
}
330
1EE
100
TcOptionalData
 70
     1
 70
    33
  1
Line/Polyline
 40
0.0099999997764826
  0
TCOPTIONALDATA
  5
1F2
102
{ACAD_REACTORS
330
1F1
102
}
330
1F1
100
TcOptionalData
 70
     1
 70
    33
  1
Circle/Arc
 40
0.0099999997764826
  0
TCOPTIONALDATA
  5
1F5
102
{ACAD_REACTORS
330
1F4
102
}
330
1F4
100
TcOptionalData
 70
     1
 70
    33
  1
Circle/Arc
 40
0.0099999997764826
  0
TCOPTIONALDATA
  5
1F8
102
{ACAD_REACTORS
330
1F7
102
}
330
1F7
100
TcOptionalData
 70
     1
 70
    33
  1
Line/Polyline
 40
0.0099999997764826
  0
TCOPTIONALDATA
  5
1FB
102
{ACAD_REACTORS
330
1FA
102
}
330
1FA
100
TcOptionalData
 70
     1
 70
    33
  1
Circle/Arc
 40
0.0099999997764826
  0
TCOPTIONALDATA
  5
1FE
102
{ACAD_REACTORS
330
1FD
102
}
330
1FD
100
TcOptionalData
 70
     1
 70
    33
  1
Circle/Arc
 40
0.0099999997764826
  0
TCOPTIONALDATA
  5
201
102
{ACAD_REACTORS
330
200
102
}
330
200
100
TcOptionalData
 70
     1
 70
    33
  1
Line/Polyline
 40
0.0099999997764826
  0
TCOPTIONALDATA
  5
204
102
{ACAD_REACTORS
330
203
102
}
330
203
100
TcOptionalData
 70
     1
 70
    33
  1
Line/Polyline
 40
0.0099999997764826
  0
TCOPTIONALDATA
  5
207
102
{ACAD_REACTORS
330
206
102
}
330
206
100
TcOptionalData
 70
     1
 70
    32
 40
0.0099999997764826
  0
TCOPTIONALDATA
  5
20A
102
{ACAD_REACTORS
330
209
102
}
330
209
100
TcOptionalData
 70
     1
 70
    32
 40
0.0099999997764826
  0
TCOPTIONALDATA
  5
20D
102
{ACAD_REACTORS
330
20C
102
}
330
20C
100
TcOptionalData
 70
     1
 70
    33
  1
Line/Polyline
 40
0.0099999997764826
  0
TCOPTIONALDATA
  5
210
102
{ACAD_REACTORS
330
20F
102
}
330
20F
100
TcOptionalData
 70
     1
 70
    33
  1
Line/Polyline
 40
0.0099999997764826
  0
TCOPTIONALDATA
  5
213
102
{ACAD_REACTORS
330
212
102
}
330
212
100
TcOptionalData
 70
     1
 70
    33
  1
Line/Polyline
 40
0.0099999997764826
  0
TCOPTIONALDATA
  5
216
102
{ACAD_REACTORS
330
215
102
}
330
215
100
TcOptionalData
 70
     1
 70
    33
  1
Line/Polyline
 40
0.0099999997764826
  0
TCOPTIONALDATA
  5
219
102
{ACAD_REACTORS
330
218
102
}
330
218
100
TcOptionalData
 70
     1
 70
    33
  1
Line/Polyline
 40
0.0099999997764826
  0
TCOPTIONALDATA
  5
21C
102
{ACAD_REACTORS
330
21B
102
}
330
21B
100
TcOptionalData
 70
     1
 70
    33
  1
Line/Polyline
 40
0.0099999997764826
  0
TCOPTIONALDATA
  5
21F
102
{ACAD_REACTORS
330
21E
102
}
330
21E
100
TcOptionalData
 70
     1
 70
    33
  1
Line/Polyline
 40
0.0099999997764826
  0
TCOPTIONALDATA
  5
222
102
{ACAD_REACTORS
330
221
102
}
330
221
100
TcOptionalData
 70
     1
 70
    33
  1
Line/Polyline
 40
0.0099999997764826
  0
TCOPTIONALDATA
  5
225
102
{ACAD_REACTORS
330
224
102
}
330
224
100
TcOptionalData
 70
     1
 70
    33
  1
Line/Polyline
 40
0.0099999997764826
  0
TCOPTIONALDATA
  5
228
102
{ACAD_REACTORS
330
227
102
}
330
227
100
TcOptionalData
 70
     1
 70
    33
  1
Line/Polyline
 40
0.0099999997764826
  0
TCOPTIONALDATA
  5
22B
102
{ACAD_REACTORS
330
22A
102
}
330
22A
100
TcOptionalData
 70
     1
 70
    33
  1
Line/Polyline
 40
0.0099999997764826
  0
TCOPTIONALDATA
  5
22E
102
{ACAD_REACTORS
330
22D
102
}
330
22D
100
TcOptionalData
 70
     1
 70
    33
  1
Line/Polyline
 40
0.0099999997764826
  0
TCOPTIONALDATA
  5
231
102
{ACAD_REACTORS
330
230
102
}
330
230
100
TcOptionalData
 70
     1
 70
    33
  1
Line/Polyline
 40
0.0099999997764826
  0
TCOPTIONALDATA
  5
234
102
{ACAD_REACTORS
330
233
102
}
330
233
100
TcOptionalData
 70
     1
 70
    33
  1
Line/Polyline
 40
0.0099999997764826
  0
TCOPTIONALDATA
  5
237
102
{ACAD_REACTORS
330
236
102
}
330
236
100
TcOptionalData
 70
     1
 70
    33
  1
Line/Polyline
 40
0.0099999997764826
  0
TCOPTIONALDATA
  5
23A
102
{ACAD_REACTORS
330
239
102
}
330
239
100
TcOptionalData
 70
     1
 70
    33
  1
Line/Polyline
 40
0.0099999997764826
  0
TCOPTIONALDATA
  5
23D
102
{ACAD_REACTORS
330
23C
102
}
330
23C
100
TcOptionalData
 70
     1
 70
    33
  1
Line/Polyline
 40
0.0099999997764826
  0
TCOPTIONALDATA
  5
240
102
{ACAD_REACTORS
330
23F
102
}
330
23F
100
TcOptionalData
 70
     1
 70
    33
  1
Line/Polyline
 40
0.0099999997764826
  0
TCOPTIONALDATA
  5
243
102
{ACAD_REACTORS
330
242
102
}
330
242
100
TcOptionalData
 70
     1
 70
    33
  1
Line/Polyline
 40
0.0099999997764826
  0
TCOPTIONALDATA
  5
246
102
{ACAD_REACTORS
330
245
102
}
330
245
100
TcOptionalData
 70
     1
 70
    33
  1
Line/Polyline
 40
0.0099999997764826
  0
TCOPTIONALDATA
  5
249
102
{ACAD_REACTORS
330
248
102
}
330
248
100
TcOptionalData
 70
     1
 70
    33
  1
Line/Polyline
 40
0.0099999997764826
  0
TCOPTIONALDATA
  5
24C
102
{ACAD_REACTORS
330
24B
102
}
330
24B
100
TcOptionalData
 70
     1
 70
    33
  1
Line/Polyline
 40
0.0099999997764826
  0
TCOPTIONALDATA
  5
24F
102
{ACAD_REACTORS
330
24E
102
}
330
24E
100
TcOptionalData
 70
     1
 70
    33
  1
Line/Polyline
 40
0.0099999997764826
  0
TCOPTIONALDATA
  5
252
102
{ACAD_REACTORS
330
251
102
}
330
251
100
TcOptionalData
 70
     1
 70
    33
  1
Line/Polyline
 40
0.0099999997764826
  0
TCOPTIONALDATA
  5
255
102
{ACAD_REACTORS
330
254
102
}
330
254
100
TcOptionalData
 70
     1
 70
    33
  1
Line/Polyline
 40
0.0099999997764826
  0
TCOPTIONALDATA
  5
258
102
{ACAD_REACTORS
330
257
102
}
330
257
100
TcOptionalData
 70
     1
 70
    33
  1
Line/Polyline
 40
0.0099999997764826
  0
TCOPTIONALDATA
  5
25B
102
{ACAD_REACTORS
330
25A
102
}
330
25A
100
TcOptionalData
 70
     1
 70
    33
  1
Line/Polyline
 40
0.0099999997764826
  0
TCOPTIONALDATA
  5
25E
102
{ACAD_REACTORS
330
25D
102
}
330
25D
100
TcOptionalData
 70
     1
 70
    33
  1
Line/Polyline
 40
0.0099999997764826
  0
TCOPTIONALDATA
  5
261
102
{ACAD_REACTORS
330
260
102
}
330
260
100
TcOptionalData
 70
     1
 70
    33
  1
Line/Polyline
 40
0.0099999997764826
  0
TCOPTIONALDATA
  5
264
102
{ACAD_REACTORS
330
263
102
}
330
263
100
TcOptionalData
 70
     1
 70
    33
  1
Line/Polyline
 40
0.0099999997764826
  0
TCOPTIONALDATA
  5
267
102
{ACAD_REACTORS
330
266
102
}
330
266
100
TcOptionalData
 70
     1
 70
    33
  1
Line/Polyline
 40
0.0099999997764826
  0
TCOPTIONALDATA
  5
26A
102
{ACAD_REACTORS
330
269
102
}
330
269
100
TcOptionalData
 70
     1
 70
    33
  1
Line/Polyline
 40
0.0099999997764826
  0
TCOPTIONALDATA
  5
26D
102
{ACAD_REACTORS
330
26C
102
}
330
26C
100
TcOptionalData
 70
     1
 70
    33
  1
Line/Polyline
 40
0.0099999997764826
  0
TCOPTIONALDATA
  5
270
102
{ACAD_REACTORS
330
26F
102
}
330
26F
100
TcOptionalData
 70
     1
 70
    33
  1
Line/Polyline
 40
0.0099999997764826
  0
TCOPTIONALDATA
  5
273
102
{ACAD_REACTORS
330
272
102
}
330
272
100
TcOptionalData
 70
     1
 70
    33
  1
Line/Polyline
 40
0.0099999997764826
  0
TCOPTIONALDATA
  5
276
102
{ACAD_REACTORS
330
275
102
}
330
275
100
TcOptionalData
 70
     1
 70
    33
  1
Line/Polyline
 40
0.0099999997764826
  0
TCOPTIONALDATA
  5
279
102
{ACAD_REACTORS
330
278
102
}
330
278
100
TcOptionalData
 70
     1
 70
   128
 90
        1
  1
#$AUX@_ToolInfo Properties
 70
     8
  1
CMD_AC_RECTANGLE@
  0
TCOPTIONALDATA
  5
27C
102
{ACAD_REACTORS
330
27B
102
}
330
27B
100
TcOptionalData
 70
     1
 70
   128
 90
        1
  1
#$AUX@_ToolInfo Properties
 70
     8
  1
CMD_AC_RECTANGLE@
  0
TCOPTIONALDATA
  5
27F
102
{ACAD_REACTORS
330
27E
102
}
330
27E
100
TcOptionalData
 70
     1
 70
   128
 90
        1
  1
#$AUX@_ToolInfo Properties
 70
     8
  1
CMD_AC_RECTANGLE@
  0
TCOPTIONALDATA
  5
282
102
{ACAD_REACTORS
330
281
102
}
330
281
100
TcOptionalData
 70
     1
 70
   128
 90
        1
  1
#$AUX@_ToolInfo Properties
 70
     8
  1
CMD_AC_RECTANGLE@
  0
TCOPTIONALDATA
  5
285
102
{ACAD_REACTORS
330
284
102
}
330
284
100
TcOptionalData
 70
     1
 70
   128
 90
        1
  1
#$AUX@_ToolInfo Properties
 70
     8
  1
CMD_AC_RECTANGLE@
  0
TCOPTIONALDATA
  5
288
102
{ACAD_REACTORS
330
287
102
}
330
287
100
TcOptionalData
 70
     1
 70
   128
 90
        1
  1
#$AUX@_ToolInfo Properties
 70
     8
  1
CMD_AC_RECTANGLE@
  0
TCOPTIONALDATA
  5
28B
102
{ACAD_REACTORS
330
28A
102
}
330
28A
100
TcOptionalData
 70
     1
 70
   128
 90
        1
  1
#$AUX@_ToolInfo Properties
 70
     8
  1
CMD_AC_RECTANGLE@
  0
TCOPTIONALDATA
  5
28E
102
{ACAD_REACTORS
330
28D
102
}
330
28D
100
TcOptionalData
 70
     1
 70
   128
 90
        1
  1
#$AUX@_ToolInfo Properties
 70
     8
  1
CMD_AC_RECTANGLE@
  0
TCOPTIONALDATA
  5
291
102
{ACAD_REACTORS
330
290
102
}
330
290
100
TcOptionalData
 70
     1
 70
   128
 90
        1
  1
#$AUX@_ToolInfo Properties
 70
     8
  1
CMD_AC_RECTANGLE@
  0
TCOPTIONALDATA
  5
294
102
{ACAD_REACTORS
330
293
102
}
330
293
100
TcOptionalData
 70
     1
 70
   128
 90
        1
  1
#$AUX@_ToolInfo Properties
 70
     8
  1
CMD_AC_RECTANGLE@
  0
TCOPTIONALDATA
  5
297
102
{ACAD_REACTORS
330
296
102
}
330
296
100
TcOptionalData
 70
     1
 70
   128
 90
        1
  1
#$AUX@_ToolInfo Properties
 70
     8
  1
CMD_AC_RECTANGLE@
  0
TCOPTIONALDATA
  5
29A
102
{ACAD_REACTORS
330
299
102
}
330
299
100
TcOptionalData
 70
     1
 70
   128
 90
        1
  1
#$AUX@_ToolInfo Properties
 70
     8
  1
CMD_AC_RECTANGLE@
  0
TCOPTIONALDATA
  5
29D
102
{ACAD_REACTORS
330
29C
102
}
330
29C
100
TcOptionalData
 70
     1
 70
   128
 90
        1
  1
#$AUX@_ToolInfo Properties
 70
     8
  1
CMD_AC_RECTANGLE@
  0
TCOPTIONALDATA
  5
2A0
102
{ACAD_REACTORS
330
29F
102
}
330
29F
100
TcOptionalData
 70
     1
 70
   128
 90
        1
  1
#$AUX@_ToolInfo Properties
 70
     8
  1
CMD_AC_RECTANGLE@
  0
TCOPTIONALDATA
  5
2A3
102
{ACAD_REACTORS
330
2A2
102
}
330
2A2
100
TcOptionalData
 70
     1
 70
   128
 90
        1
  1
#$AUX@_ToolInfo Properties
 70
     8
  1
CMD_AC_RECTANGLE@
  0
TCOPTIONALDATA
  5
2A6
102
{ACAD_REACTORS
330
2A5
102
}
330
2A5
100
TcOptionalData
 70
     1
 70
   128
 90
        1
  1
#$AUX@_ToolInfo Properties
 70
     8
  1
CMD_AC_RECTANGLE@
  0
TCOPTIONALDATA
  5
2AB
102
{ACAD_REACTORS
330
2AA
102
}
330
2AA
100
TcOptionalData
 70
     1
 70
   128
 90
        1
  1
#$AUX@_ToolInfo Properties
 70
     8
  1
CMD_AC_RECTANGLE@
  0
TCOPTIONALDATA
  5
2B0
102
{ACAD_REACTORS
330
2AF
102
}
330
2AF
100
TcOptionalData
 70
     1
 70
   128
 90
        1
  1
#$AUX@_ToolInfo Properties
 70
     8
  1
CMD_AC_RECTANGLE@
  0
TCOPTIONALDATA
  5
2B3
102
{ACAD_REACTORS
330
2B2
102
}
330
2B2
100
TcOptionalData
 70
     1
 70
   128
 90
        1
  1
#$AUX@_ToolInfo Properties
 70
     8
  1
CMD_AC_RECTANGLE@
  0
TCOPTIONALDATA
  5
2B6
102
{ACAD_REACTORS
330
2B5
102
}
330
2B5
100
TcOptionalData
 70
     1
 70
   128
 90
        1
  1
#$AUX@_ToolInfo Properties
 70
     8
  1
CMD_AC_RECTANGLE@
  0
TCOPTIONALDATA
  5
2BC
102
{ACAD_REACTORS
330
2BB
102
}
330
2BB
100
TcOptionalData
 70
     1
 70
   128
 90
        1
  1
#$AUX@_ToolInfo Properties
 70
     8
  1
CMD_AC_ARC_ELLIPSE@
  0
TCOPTIONALDATA
  5
2C0
102
{ACAD_REACTORS
330
2BF
102
}
330
2BF
100
TcOptionalData
 70
     1
 70
   130
 10
128.7499065387672
 20
69.89936381889851
 30
0.0
 90
        1
  1
#$AUX@_ToolInfo Properties
 70
     8
  1
CMD_MTEXT@
  0
TCOPTIONALDATA
  5
2C3
102
{ACAD_REACTORS
330
2C2
102
}
330
2C2
100
TcOptionalData
 70
     1
 70
   130
 10
130.7880004419634
 20
59.55968150169917
 30
0.0
 90
        1
  1
#$AUX@_ToolInfo Properties
 70
     8
  1
CMD_MTEXT@
  0
TCOPTIONALDATA
  5
2C6
102
{ACAD_REACTORS
330
2C5
102
}
330
2C5
100
TcOptionalData
 70
     1
 70
    33
  1
Line/Polyline
 40
0.0099999997764826
  0
TCOPTIONALDATA
  5
2C9
102
{ACAD_REACTORS
330
2C8
102
}
330
2C8
100
TcOptionalData
 70
     1
 70
    33
  1
Line/Polyline
 40
0.0099999997764826
  0
TCOPTIONALDATA
  5
2CC
102
{ACAD_REACTORS
330
2CB
102
}
330
2CB
100
TcOptionalData
 70
     1
 70
    33
  1
Line/Polyline
 40
0.0099999997764826
  0
TCOPTIONALDATA
  5
2CF
102
{ACAD_REACTORS
330
2CE
102
}
330
2CE
100
TcOptionalData
 70
     1
 70
    33
  1
Line/Polyline
 40
0.0099999997764826
  0
TCOPTIONALDATA
  5
2D2
102
{ACAD_REACTORS
330
2D1
102
}
330
2D1
100
TcOptionalData
 70
     1
 70
    33
  1
Circle/Arc
 40
0.0099999997764826
  0
TCOPTIONALDATA
  5
2D5
102
{ACAD_REACTORS
330
2D4
102
}
330
2D4
100
TcOptionalData
 70
     1
 70
    33
  1
Circle/Arc
 40
0.0099999997764826
  0
TCOPTIONALDATA
  5
2D8
102
{ACAD_REACTORS
330
2D7
102
}
330
2D7
100
TcOptionalData
 70
     1
 70
    33
  1
Line/Polyline
 40
0.0099999997764826
  0
TCOPTIONALDATA
  5
2DB
102
{ACAD_REACTORS
330
2DA
102
}
330
2DA
100
TcOptionalData
 70
     1
 70
    33
  1
Line/Polyline
 40
0.0099999997764826
  0
TCOPTIONALDATA
  5
2DE
102
{ACAD_REACTORS
330
2DD
102
}
330
2DD
100
TcOptionalData
 70
     1
 70
    33
  1
Line/Polyline
 40
0.0099999997764826
  0
TCOPTIONALDATA
  5
2E1
102
{ACAD_REACTORS
330
2E0
102
}
330
2E0
100
TcOptionalData
 70
     1
 70
    33
  1
Line/Polyline
 40
0.0099999997764826
  0
TCOPTIONALDATA
  5
2E4
102
{ACAD_REACTORS
330
2E3
102
}
330
2E3
100
TcOptionalData
 70
     1
 70
    33
  1
Line/Polyline
 40
0.0099999997764826
  0
TCOPTIONALDATA
  5
2E7
102
{ACAD_REACTORS
330
2E6
102
}
330
2E6
100
TcOptionalData
 70
     1
 70
    33
  1
Line/Polyline
 40
0.0099999997764826
  0
TCOPTIONALDATA
  5
2EA
102
{ACAD_REACTORS
330
2E9
102
}
330
2E9
100
TcOptionalData
 70
     1
 70
    33
  1
Line/Polyline
 40
0.0099999997764826
  0
TCOPTIONALDATA
  5
2ED
102
{ACAD_REACTORS
330
2EC
102
}
330
2EC
100
TcOptionalData
 70
     1
 70
    33
  1
Line/Polyline
 40
0.0099999997764826
  0
TCOPTIONALDATA
  5
2F0
102
{ACAD_REACTORS
330
2EF
102
}
330
2EF
100
TcOptionalData
 70
     1
 70
    33
  1
Line/Polyline
 40
0.0099999997764826
  0
TCOPTIONALDATA
  5
2F3
102
{ACAD_REACTORS
330
2F2
102
}
330
2F2
100
TcOptionalData
 70
     1
 70
    33
  1
Line/Polyline
 40
0.0099999997764826
  0
TCOPTIONALDATA
  5
2F6
102
{ACAD_REACTORS
330
2F5
102
}
330
2F5
100
TcOptionalData
 70
     1
 70
    33
  1
Circle/Arc
 40
0.0099999997764826
  0
TCOPTIONALDATA
  5
2F9
102
{ACAD_REACTORS
330
2F8
102
}
330
2F8
100
TcOptionalData
 70
     1
 70
    33
  1
Circle/Arc
 40
0.0099999997764826
  0
TCOPTIONALDATA
  5
2FC
102
{ACAD_REACTORS
330
2FB
102
}
330
2FB
100
TcOptionalData
 70
     1
 70
    33
  1
Line/Polyline
 40
0.0099999997764826
  0
TCOPTIONALDATA
  5
2FF
102
{ACAD_REACTORS
330
2FE
102
}
330
2FE
100
TcOptionalData
 70
     1
 70
    33
  1
Line/Polyline
 40
0.0099999997764826
  0
TCOPTIONALDATA
  5
302
102
{ACAD_REACTORS
330
301
102
}
330
301
100
TcOptionalData
 70
     1
 70
    33
  1
Circle/Arc
 40
0.0099999997764826
  0
TCOPTIONALDATA
  5
305
102
{ACAD_REACTORS
330
304
102
}
330
304
100
TcOptionalData
 70
     1
 70
    33
  1
Circle/Arc
 40
0.0099999997764826
  0
TCOPTIONALDATA
  5
308
102
{ACAD_REACTORS
330
307
102
}
330
307
100
TcOptionalData
 70
     1
 70
    33
  1
Line/Polyline
 40
0.0099999997764826
  0
TCOPTIONALDATA
  5
30B
102
{ACAD_REACTORS
330
30A
102
}
330
30A
100
TcOptionalData
 70
     1
 70
    33
  1
Line/Polyline
 40
0.0099999997764826
  0
TCOPTIONALDATA
  5
30E
102
{ACAD_REACTORS
330
30D
102
}
330
30D
100
TcOptionalData
 70
     1
 70
    33
  1
Line/Polyline
 40
0.0099999997764826
  0
TCOPTIONALDATA
  5
311
102
{ACAD_REACTORS
330
310
102
}
330
310
100
TcOptionalData
 70
     1
 70
    33
  1
Line/Polyline
 40
0.0099999997764826
  0
TCOPTIONALDATA
  5
314
102
{ACAD_REACTORS
330
313
102
}
330
313
100
TcOptionalData
 70
     1
 70
    33
  1
Circle/Arc
 40
0.0099999997764826
  0
TCOPTIONALDATA
  5
317
102
{ACAD_REACTORS
330
316
102
}
330
316
100
TcOptionalData
 70
     1
 70
    33
  1
Circle/Arc
 40
0.0099999997764826
  0
TCOPTIONALDATA
  5
31A
102
{ACAD_REACTORS
330
319
102
}
330
319
100
TcOptionalData
 70
     1
 70
    33
  1
Line/Polyline
 40
0.0099999997764826
  0
TCOPTIONALDATA
  5
31D
102
{ACAD_REACTORS
330
31C
102
}
330
31C
100
TcOptionalData
 70
     1
 70
    33
  1
Line/Polyline
 40
0.0099999997764826
  0
TCOPTIONALDATA
  5
320
102
{ACAD_REACTORS
330
31F
102
}
330
31F
100
TcOptionalData
 70
     1
 70
    33
  1
Circle/Arc
 40
0.0099999997764826
  0
TCOPTIONALDATA
  5
323
102
{ACAD_REACTORS
330
322
102
}
330
322
100
TcOptionalData
 70
     1
 70
    33
  1
Circle/Arc
 40
0.0099999997764826
  0
TCOPTIONALDATA
  5
326
102
{ACAD_REACTORS
330
325
102
}
330
325
100
TcOptionalData
 70
     1
 70
    33
  1
Line/Polyline
 40
0.0099999997764826
  0
TCOPTIONALDATA
  5
329
102
{ACAD_REACTORS
330
328
102
}
330
328
100
TcOptionalData
 70
     1
 70
    33
  1
Line/Polyline
 40
0.0099999997764826
  0
TCOPTIONALDATA
  5
32C
102
{ACAD_REACTORS
330
32B
102
}
330
32B
100
TcOptionalData
 70
     1
 70
    33
  1
Line/Polyline
 40
0.0099999997764826
  0
TCOPTIONALDATA
  5
32F
102
{ACAD_REACTORS
330
32E
102
}
330
32E
100
TcOptionalData
 70
     1
 70
    33
  1
Line/Polyline
 40
0.0099999997764826
  0
TCOPTIONALDATA
  5
332
102
{ACAD_REACTORS
330
331
102
}
330
331
100
TcOptionalData
 70
     1
 70
    33
  1
Line/Polyline
 40
0.0099999997764826
  0
TCOPTIONALDATA
  5
335
102
{ACAD_REACTORS
330
334
102
}
330
334
100
TcOptionalData
 70
     1
 70
    33
  1
Line/Polyline
 40
0.0099999997764826
  0
TCOPTIONALDATA
  5
338
102
{ACAD_REACTORS
330
337
102
}
330
337
100
TcOptionalData
 70
     1
 70
    33
  1
Line/Polyline
 40
0.0099999997764826
  0
TCOPTIONALDATA
  5
33B
102
{ACAD_REACTORS
330
33A
102
}
330
33A
100
TcOptionalData
 70
     1
 70
    33
  1
Line/Polyline
 40
0.0099999997764826
  0
TCOPTIONALDATA
  5
33E
102
{ACAD_REACTORS
330
33D
102
}
330
33D
100
TcOptionalData
 70
     1
 70
    33
  1
Line/Polyline
 40
0.0099999997764826
  0
TCOPTIONALDATA
  5
341
102
{ACAD_REACTORS
330
340
102
}
330
340
100
TcOptionalData
 70
     1
 70
    33
  1
Line/Polyline
 40
0.0099999997764826
  0
TCOPTIONALDATA
  5
344
102
{ACAD_REACTORS
330
343
102
}
330
343
100
TcOptionalData
 70
     1
 70
    33
  1
Line/Polyline
 40
0.0099999997764826
  0
TCOPTIONALDATA
  5
347
102
{ACAD_REACTORS
330
346
102
}
330
346
100
TcOptionalData
 70
     1
 70
    33
  1
Line/Polyline
 40
0.0099999997764826
  0
TCOPTIONALDATA
  5
34A
102
{ACAD_REACTORS
330
349
102
}
330
349
100
TcOptionalData
 70
     1
 70
    33
  1
Circle/Arc
 40
0.0099999997764826
  0
TCOPTIONALDATA
  5
34D
102
{ACAD_REACTORS
330
34C
102
}
330
34C
100
TcOptionalData
 70
     1
 70
    33
  1
Circle/Arc
 40
0.0099999997764826
  0
TCOPTIONALDATA
  5
350
102
{ACAD_REACTORS
330
34F
102
}
330
34F
100
TcOptionalData
 70
     1
 70
    33
  1
Line/Polyline
 40
0.0099999997764826
  0
TCOPTIONALDATA
  5
353
102
{ACAD_REACTORS
330
352
102
}
330
352
100
TcOptionalData
 70
     1
 70
    33
  1
Circle/Arc
 40
0.0099999997764826
  0
TCOPTIONALDATA
  5
356
102
{ACAD_REACTORS
330
355
102
}
330
355
100
TcOptionalData
 70
     1
 70
    33
  1
Circle/Arc
 40
0.0099999997764826
  0
TCOPTIONALDATA
  5
359
102
{ACAD_REACTORS
330
358
102
}
330
358
100
TcOptionalData
 70
     1
 70
    33
  1
Line/Polyline
 40
0.0099999997764826
  0
TCOPTIONALDATA
  5
35C
102
{ACAD_REACTORS
330
35B
102
}
330
35B
100
TcOptionalData
 70
     1
 70
    33
  1
Line/Polyline
 40
0.0099999997764826
  0
TCOPTIONALDATA
  5
35F
102
{ACAD_REACTORS
330
35E
102
}
330
35E
100
TcOptionalData
 70
     1
 70
    33
  1
Line/Polyline
 40
0.0099999997764826
  0
TCOPTIONALDATA
  5
362
102
{ACAD_REACTORS
330
361
102
}
330
361
100
TcOptionalData
 70
     1
 70
    33
  1
Line/Polyline
 40
0.0099999997764826
  0
TCOPTIONALDATA
  5
365
102
{ACAD_REACTORS
330
364
102
}
330
364
100
TcOptionalData
 70
     1
 70
    33
  1
Circle/Arc
 40
0.0099999997764826
  0
TCOPTIONALDATA
  5
368
102
{ACAD_REACTORS
330
367
102
}
330
367
100
TcOptionalData
 70
     1
 70
    33
  1
Circle/Arc
 40
0.0099999997764826
  0
TCOPTIONALDATA
  5
36B
102
{ACAD_REACTORS
330
36A
102
}
330
36A
100
TcOptionalData
 70
     1
 70
    33
  1
Line/Polyline
 40
0.0099999997764826
  0
TCOPTIONALDATA
  5
36E
102
{ACAD_REACTORS
330
36D
102
}
330
36D
100
TcOptionalData
 70
     1
 70
    33
  1
Line/Polyline
 40
0.0099999997764826
  0
TCOPTIONALDATA
  5
371
102
{ACAD_REACTORS
330
370
102
}
330
370
100
TcOptionalData
 70
     1
 70
    33
  1
Line/Polyline
 40
0.0099999997764826
  0
TCOPTIONALDATA
  5
374
102
{ACAD_REACTORS
330
373
102
}
330
373
100
TcOptionalData
 70
     1
 70
    33
  1
Line/Polyline
 40
0.0099999997764826
  0
TCOPTIONALDATA
  5
377
102
{ACAD_REACTORS
330
376
102
}
330
376
100
TcOptionalData
 70
     1
 70
    33
  1
Line/Polyline
 40
0.0099999997764826
  0
TCOPTIONALDATA
  5
37A
102
{ACAD_REACTORS
330
379
102
}
330
379
100
TcOptionalData
 70
     1
 70
    33
  1
Line/Polyline
 40
0.0099999997764826
  0
TCOPTIONALDATA
  5
37D
102
{ACAD_REACTORS
330
37C
102
}
330
37C
100
TcOptionalData
 70
     1
 70
    33
  1
Line/Polyline
 40
0.0099999997764826
  0
TCOPTIONALDATA
  5
380
102
{ACAD_REACTORS
330
37F
102
}
330
37F
100
TcOptionalData
 70
     1
 70
    33
  1
Line/Polyline
 40
0.0099999997764826
  0
TCOPTIONALDATA
  5
383
102
{ACAD_REACTORS
330
382
102
}
330
382
100
TcOptionalData
 70
     1
 70
    33
  1
Line/Polyline
 40
0.0099999997764826
  0
TCOPTIONALDATA
  5
386
102
{ACAD_REACTORS
330
385
102
}
330
385
100
TcOptionalData
 70
     1
 70
    33
  1
Line/Polyline
 40
0.0099999997764826
  0
TCOPTIONALDATA
  5
389
102
{ACAD_REACTORS
330
388
102
}
330
388
100
TcOptionalData
 70
     1
 70
   128
 90
        1
  1
#$AUX@_ToolInfo Properties
 70
     8
  1
CMD_AC_RECTANGLE@
  0
TCOPTIONALDATA
  5
38F
102
{ACAD_REACTORS
330
38E
102
}
330
38E
100
TcOptionalData
 70
     1
 70
   128
 90
        1
  1
#$AUX@_ToolInfo Properties
 70
     8
  1
CMD_AC_RECTANGLE@
  0
TCOPTIONALDATA
  5
394
102
{ACAD_REACTORS
330
393
102
}
330
393
100
TcOptionalData
 70
     1
 70
   128
 90
        1
  1
#$AUX@_ToolInfo Properties
 70
     8
  1
CMD_AC_RECTANGLE@
  0
TCOPTIONALDATA
  5
397
102
{ACAD_REACTORS
330
396
102
}
330
396
100
TcOptionalData
 70
     1
 70
   128
 90
        1
  1
#$AUX@_ToolInfo Properties
 70
     8
  1
CMD_AC_RECTANGLE@
  0
TCOPTIONALDATA
  5
39C
102
{ACAD_REACTORS
330
39B
102
}
330
39B
100
TcOptionalData
 70
     1
 70
   128
 90
        1
  1
#$AUX@_ToolInfo Properties
 70
     8
  1
CMD_AC_RECTANGLE@
  0
TCOPTIONALDATA
  5
3A1
102
{ACAD_REACTORS
330
3A0
102
}
330
3A0
100
TcOptionalData
 70
     1
 70
   128
 90
        1
  1
#$AUX@_ToolInfo Properties
 70
     8
  1
CMD_AC_RECTANGLE@
  0
TCOPTIONALDATA
  5
3A9
102
{ACAD_REACTORS
330
3A8
102
}
330
3A8
100
TcOptionalData
 70
     1
 70
   128
 90
        1
  1
#$AUX@_ToolInfo Properties
 70
     8
  1
CMD_AC_RECTANGLE@
  0
TCOPTIONALDATA
  5
3B1
102
{ACAD_REACTORS
330
3B0
102
}
330
3B0
100
TcOptionalData
 70
     1
 70
   128
 90
        1
  1
#$AUX@_ToolInfo Properties
 70
     8
  1
CMD_AC_RECTANGLE@
  0
TCOPTIONALDATA
  5
3B9
102
{ACAD_REACTORS
330
3B8
102
}
330
3B8
100
TcOptionalData
 70
     1
 70
   128
 90
        1
  1
#$AUX@_ToolInfo Properties
 70
     8
  1
CMD_AC_RECTANGLE@
  0
TCOPTIONALDATA
  5
3BC
102
{ACAD_REACTORS
330
3BB
102
}
330
3BB
100
TcOptionalData
 70
     1
 70
   128
 90
        1
  1
#$AUX@_ToolInfo Properties
 70
     8
  1
CMD_AC_RECTANGLE@
  0
TCOPTIONALDATA
  5
3BF
102
{ACAD_REACTORS
330
3BE
102
}
330
3BE
100
TcOptionalData
 70
     1
 70
   128
 90
        1
  1
#$AUX@_ToolInfo Properties
 70
     8
  1
CMD_AC_RECTANGLE@
  0
TCOPTIONALDATA
  5
3C2
102
{ACAD_REACTORS
330
3C1
102
}
330
3C1
100
TcOptionalData
 70
     1
 70
   128
 90
        1
  1
#$AUX@_ToolInfo Properties
 70
     8
  1
CMD_AC_RECTANGLE@
  0
TCOPTIONALDATA
  5
3C5
102
{ACAD_REACTORS
330
3C4
102
}
330
3C4
100
TcOptionalData
 70
     1
 70
   128
 90
        1
  1
#$AUX@_ToolInfo Properties
 70
     8
  1
CMD_AC_RECTANGLE@
  0
TCOPTIONALDATA
  5
3C8
102
{ACAD_REACTORS
330
3C7
102
}
330
3C7
100
TcOptionalData
 70
     1
 70
   128
 90
        1
  1
#$AUX@_ToolInfo Properties
 70
     8
  1
CMD_AC_RECTANGLE@
  0
TCOPTIONALDATA
  5
3CB
102
{ACAD_REACTORS
330
3CA
102
}
330
3CA
100
TcOptionalData
 70
     1
 70
   128
 90
        1
  1
#$AUX@_ToolInfo Properties
 70
     8
  1
CMD_AC_RECTANGLE@
  0
TCOPTIONALDATA
  5
3CE
102
{ACAD_REACTORS
330
3CD
102
}
330
3CD
100
TcOptionalData
 70
     1
 70
   128
 90
        1
  1
#$AUX@_ToolInfo Properties
 70
     8
  1
CMD_AC_RECTANGLE@
  0
TCOPTIONALDATA
  5
3D1
102
{ACAD_REACTORS
330
3D0
102
}
330
3D0
100
TcOptionalData
 70
     1
 70
   128
 90
        1
  1
#$AUX@_ToolInfo Properties
 70
     8
  1
CMD_AC_RECTANGLE@
  0
TCOPTIONALDATA
  5
3D6
102
{ACAD_REACTORS
330
3D5
102
}
330
3D5
100
TcOptionalData
 70
     1
 70
   128
 90
        1
  1
#$AUX@_ToolInfo Properties
 70
     8
  1
CMD_AC_RECTANGLE@
  0
TCOPTIONALDATA
  5
3DB
102
{ACAD_REACTORS
330
3DA
102
}
330
3DA
100
TcOptionalData
 70
     1
 70
   128
 90
        1
  1
#$AUX@_ToolInfo Properties
 70
     8
  1
CMD_AC_RECTANGLE@
  0
TCOPTIONALDATA
  5
3E3
102
{ACAD_REACTORS
330
3E2
102
}
330
3E2
100
TcOptionalData
 70
     1
 70
   128
 90
        1
  1
#$AUX@_ToolInfo Properties
 70
     8
  1
CMD_AC_RECTANGLE@
  0
TCOPTIONALDATA
  5
3EB
102
{ACAD_REACTORS
330
3EA
102
}
330
3EA
100
TcOptionalData
 70
     1
 70
   128
 90
        1
  1
#$AUX@_ToolInfo Properties
 70
     8
  1
CMD_AC_RECTANGLE@
  0
TCOPTIONALDATA
  5
3F3
102
{ACAD_REACTORS
330
3F2
102
}
330
3F2
100
TcOptionalData
 70
     1
 70
   128
 90
        1
  1
#$AUX@_ToolInfo Properties
 70
     8
  1
CMD_AC_RECTANGLE@
  0
TCOPTIONALDATA
  5
3F6
102
{ACAD_REACTORS
330
3F5
102
}
330
3F5
100
TcOptionalData
 70
     1
 70
   128
 90
        1
  1
#$AUX@_ToolInfo Properties
 70
     8
  1
CMD_AC_RECTANGLE@
  0
TCOPTIONALDATA
  5
3F9
102
{ACAD_REACTORS
330
3F8
102
}
330
3F8
100
TcOptionalData
 70
     1
 70
   128
 90
        1
  1
#$AUX@_ToolInfo Properties
 70
     8
  1
CMD_AC_RECTANGLE@
  0
TCOPTIONALDATA
  5
3FC
102
{ACAD_REACTORS
330
3FB
102
}
330
3FB
100
TcOptionalData
 70
     1
 70
   128
 90
        1
  1
#$AUX@_ToolInfo Properties
 70
     8
  1
CMD_AC_RECTANGLE@
  0
TCOPTIONALDATA
  5
3FF
102
{ACAD_REACTORS
330
3FE
102
}
330
3FE
100
TcOptionalData
 70
     1
 70
   128
 90
        1
  1
#$AUX@_ToolInfo Properties
 70
     8
  1
CMD_AC_RECTANGLE@
  0
TCOPTIONALDATA
  5
402
102
{ACAD_REACTORS
330
401
102
}
330
401
100
TcOptionalData
 70
     1
 70
   128
 90
        1
  1
#$AUX@_ToolInfo Properties
 70
     8
  1
CMD_AC_RECTANGLE@
  0
TCOPTIONALDATA
  5
405
102
{ACAD_REACTORS
330
404
102
}
330
404
100
TcOptionalData
 70
     1
 70
   128
 90
        1
  1
#$AUX@_ToolInfo Properties
 70
     8
  1
CMD_AC_RECTANGLE@
  0
GROUP
  5
3A5
102
{ACAD_REACTORS
330
D
102
}
102
{ACAD_XDICTIONARY
360
3A6
102
}
330
D
100
AcDbGroup
300

 70
     0
 71
     1
340
3A2
340
3A3
340
3A4
  0
GROUP
  5
3AD
102
{ACAD_REACTORS
330
D
102
}
102
{ACAD_XDICTIONARY
360
3AE
102
}
330
D
100
AcDbGroup
300

 70
     0
 71
     1
340
3AA
340
3AB
340
3AC
  0
GROUP
  5
3B5
102
{ACAD_REACTORS
330
D
102
}
102
{ACAD_XDICTIONARY
360
3B6
102
}
330
D
100
AcDbGroup
300

 70
     0
 71
     1
340
3B2
340
3B3
340
3B4
  0
GROUP
  5
3DF
102
{ACAD_REACTORS
330
D
102
}
102
{ACAD_XDICTIONARY
360
3E0
102
}
330
D
100
AcDbGroup
300

 70
     0
 71
     1
340
3DC
340
3DD
340
3DE
  0
GROUP
  5
3E7
102
{ACAD_REACTORS
330
D
102
}
102
{ACAD_XDICTIONARY
360
3E8
102
}
330
D
100
AcDbGroup
300

 70
     0
 71
     1
340
3E4
340
3E5
340
3E6
  0
GROUP
  5
3EF
102
{ACAD_REACTORS
330
D
102
}
102
{ACAD_XDICTIONARY
360
3F0
102
}
330
D
100
AcDbGroup
300

 70
     0
 71
     1
340
3EC
340
3ED
340
3EE
  0
GROUP
  5
12A
102
{ACAD_REACTORS
330
D
102
}
102
{ACAD_XDICTIONARY
360
12B
102
}
330
D
100
AcDbGroup
300

 70
     0
 71
     1
340
9F
340
A2
340
A5
340
A8
340
AB
340
AE
340
B1
340
B4
340
B7
340
BA
340
BD
340
C0
340
C3
340
C6
340
C9
340
CC
340
CF
340
D2
340
D5
340
D8
340
DB
340
DE
340
E1
340
E4
340
E7
340
EA
340
ED
340
F0
340
F3
340
F6
340
F9
340
FC
340
FF
340
102
340
105
340
108
340
10B
340
10E
340
111
340
114
340
117
340
11A
340
11D
340
120
340
123
340
126
340
129
  0
GROUP
  5
167
102
{ACAD_REACTORS
330
D
102
}
102
{ACAD_XDICTIONARY
360
168
102
}
330
D
100
AcDbGroup
300

 70
     0
 71
     1
340
164
340
165
340
166
  0
GROUP
  5
16F
102
{ACAD_REACTORS
330
D
102
}
102
{ACAD_XDICTIONARY
360
170
102
}
330
D
100
AcDbGroup
300

 70
     0
 71
     1
340
16C
340
16D
340
16E
  0
GROUP
  5
186
102
{ACAD_REACTORS
330
D
102
}
102
{ACAD_XDICTIONARY
360
187
102
}
330
D
100
AcDbGroup
300

 70
     0
 71
     1
340
183
340
184
340
185
  0
GROUP
  5
18E
102
{ACAD_REACTORS
330
D
102
}
102
{ACAD_XDICTIONARY
360
18F
102
}
330
D
100
AcDbGroup
300

 70
     0
 71
     1
340
18B
340
18C
340
18D
  0
LAYOUT
  5
22
102
{ACAD_REACTORS
330
1A
102
}
330
1A
100
AcDbPlotSettings
  1

  2
TCAD_Plot
  4
11.00 x 8.50 Inches
  6

 40
6.35
 41
6.35
 42
6.35
 43
6.35
 44
279.3999999999999
 45
215.9
 46
-6.35
 47
-6.35
 48
0.0
 49
0.0
140
0.0
141
0.0
142
1.0
143
20.0
 70
  1696
 72
     0
 73
     0
 74
     0
  7

 75
     0
 76
     0
 77
     2
 78
   300
147
0.0264424595401313
148
0.0
149
0.0
100
AcDbLayout
  1
Model
 70
     1
 71
     0
 10
0.0
 20
0.0
 11
220.0
 21
170.0
 12
0.0
 22
0.0
 32
0.0
 14
-31.69382362845734
 24
-31.86946805096083
 34
0.0
 15
256.5785661889453
 25
134.6420575134563
 35
0.0
146
0.0
 13
0.0
 23
0.0
 33
0.0
 16
1.0
 26
0.0
 36
0.0
 17
0.0
 27
1.0
 37
0.0
 76
     0
330
1F
331
29
  0
LAYOUT
  5
1E
102
{ACAD_REACTORS
330
1A
102
}
330
1A
100
AcDbPlotSettings
  1

  2
TCAD_Plot
  4
11.00 x 8.50 Inches
  6

 40
6.35
 41
6.35
 42
6.35
 43
6.35
 44
279.3999999999999
 45
215.9
 46
-6.35
 47
-6.35
 48
0.0
 49
0.0
140
0.0
141
0.0
142
1.0
143
1.0
 70
   672
 72
     0
 73
     0
 74
     5
  7

 75
    16
 76
     0
 77
     2
 78
   300
147
1.0
148
0.0
149
0.0
100
AcDbLayout
  1
Paper 1
 70
     1
 71
     1
 10
0.0
 20
0.0
 11
11.0
 21
8.5
 12
0.0
 22
0.0
 32
0.0
 14
0.0
 24
0.0
 34
0.0
 15
11.0
 25
8.5
 35
0.0
146
0.0
 13
0.0
 23
0.0
 33
0.0
 16
1.0
 26
0.0
 36
0.0
 17
0.0
 27
1.0
 37
0.0
 76
     0
330
1B
331
407
  0
MLINESTYLE
  5
18
102
{ACAD_REACTORS
330
17
102
}
330
17
100
AcDbMlineStyle
  2
Standard
 70
     0
  3

 62
   256
 51
90.0
 52
90.0
 71
     5
 49
0.5
 62
   256
  6
BYLAYER
 49
-0.5
 62
   256
  6
BYLAYER
 49
5.0
 62
     7
  6
BYLAYER
 49
0.0
 62
     7
  6
BYLAYER
 49
-5.0
 62
     7
  6
BYLAYER
  0
ACDBPLACEHOLDER
  5
F
102
{ACAD_REACTORS
330
E
102
}
330
E
  0
SCALE
  5
7D
102
{ACAD_REACTORS
330
7C
102
}
330
7C
100
AcDbScale
 70
     0
300
1:1
140
1.0
141
1.0
290
     1
  0
SCALE
  5
7E
102
{ACAD_REACTORS
330
7C
102
}
330
7C
100
AcDbScale
 70
     0
300
1:2
140
1.0
141
2.0
290
     0
  0
SCALE
  5
7F
102
{ACAD_REACTORS
330
7C
102
}
330
7C
100
AcDbScale
 70
     0
300
1:4
140
1.0
141
4.0
290
     0
  0
SCALE
  5
80
102
{ACAD_REACTORS
330
7C
102
}
330
7C
100
AcDbScale
 70
     0
300
1:5
140
1.0
141
5.0
290
     0
  0
SCALE
  5
81
102
{ACAD_REACTORS
330
7C
102
}
330
7C
100
AcDbScale
 70
     0
300
1:8
140
1.0
141
8.0
290
     0
  0
SCALE
  5
82
102
{ACAD_REACTORS
330
7C
102
}
330
7C
100
AcDbScale
 70
     0
300
1:10
140
1.0
141
10.0
290
     0
  0
SCALE
  5
83
102
{ACAD_REACTORS
330
7C
102
}
330
7C
100
AcDbScale
 70
     0
300
1:16
140
1.0
141
16.0
290
     0
  0
SCALE
  5
84
102
{ACAD_REACTORS
330
7C
102
}
330
7C
100
AcDbScale
 70
     0
300
1:20
140
1.0
141
20.0
290
     0
  0
SCALE
  5
85
102
{ACAD_REACTORS
330
7C
102
}
330
7C
100
AcDbScale
 70
     0
300
1:30
140
1.0
141
30.0
290
     0
  0
SCALE
  5
86
102
{ACAD_REACTORS
330
7C
102
}
330
7C
100
AcDbScale
 70
     0
300
1:40
140
1.0
141
40.0
290
     0
  0
SCALE
  5
87
102
{ACAD_REACTORS
330
7C
102
}
330
7C
100
AcDbScale
 70
     0
300
1:50
140
1.0
141
50.0
290
     0
  0
SCALE
  5
88
102
{ACAD_REACTORS
330
7C
102
}
330
7C
100
AcDbScale
 70
     0
300
1:100
140
1.0
141
100.0
290
     0
  0
SCALE
  5
89
102
{ACAD_REACTORS
330
7C
102
}
330
7C
100
AcDbScale
 70
     0
300
2:1
140
2.0
141
1.0
290
     0
  0
SCALE
  5
8A
102
{ACAD_REACTORS
330
7C
102
}
330
7C
100
AcDbScale
 70
     0
300
4:1
140
4.0
141
1.0
290
     0
  0
SCALE
  5
8B
102
{ACAD_REACTORS
330
7C
102
}
330
7C
100
AcDbScale
 70
     0
300
8:1
140
8.0
141
1.0
290
     0
  0
SCALE
  5
8C
102
{ACAD_REACTORS
330
7C
102
}
330
7C
100
AcDbScale
 70
     0
300
10:1
140
10.0
141
1.0
290
     0
  0
SCALE
  5
8D
102
{ACAD_REACTORS
330
7C
102
}
330
7C
100
AcDbScale
 70
     0
300
100:1
140
100.0
141
1.0
290
     0
  0
SCALE
  5
8E
102
{ACAD_REACTORS
330
7C
102
}
330
7C
100
AcDbScale
 70
     0
300
1/128" = 1'-0"
140
0.0078125
141
12.0
290
     0
  0
SCALE
  5
8F
102
{ACAD_REACTORS
330
7C
102
}
330
7C
100
AcDbScale
 70
     0
300
1/64" = 1'-0"
140
0.015625
141
12.0
290
     0
  0
SCALE
  5
90
102
{ACAD_REACTORS
330
7C
102
}
330
7C
100
AcDbScale
 70
     0
300
1/32" = 1'-0"
140
0.03125
141
12.0
290
     0
  0
SCALE
  5
91
102
{ACAD_REACTORS
330
7C
102
}
330
7C
100
AcDbScale
 70
     0
300
1/16" = 1'-0"
140
0.0625
141
12.0
290
     0
  0
SCALE
  5
92
102
{ACAD_REACTORS
330
7C
102
}
330
7C
100
AcDbScale
 70
     0
300
3/32" = 1'-0"
140
0.09375
141
12.0
290
     0
  0
SCALE
  5
93
102
{ACAD_REACTORS
330
7C
102
}
330
7C
100
AcDbScale
 70
     0
300
1/8" = 1'-0"
140
0.125
141
12.0
290
     0
  0
SCALE
  5
94
102
{ACAD_REACTORS
330
7C
102
}
330
7C
100
AcDbScale
 70
     0
300
3/16" = 1'-0"
140
0.1875
141
12.0
290
     0
  0
SCALE
  5
95
102
{ACAD_REACTORS
330
7C
102
}
330
7C
100
AcDbScale
 70
     0
300
1/4" = 1'-0"
140
0.25
141
12.0
290
     0
  0
SCALE
  5
96
102
{ACAD_REACTORS
330
7C
102
}
330
7C
100
AcDbScale
 70
     0
300
3/8" = 1'-0"
140
0.375
141
12.0
290
     0
  0
SCALE
  5
97
102
{ACAD_REACTORS
330
7C
102
}
330
7C
100
AcDbScale
 70
     0
300
1/2" = 1'-0"
140
0.5
141
12.0
290
     0
  0
SCALE
  5
98
102
{ACAD_REACTORS
330
7C
102
}
330
7C
100
AcDbScale
 70
     0
300
3/4" = 1'-0"
140
0.75
141
12.0
290
     0
  0
SCALE
  5
99
102
{ACAD_REACTORS
330
7C
102
}
330
7C
100
AcDbScale
 70
     0
300
1" = 1'-0"
140
1.0
141
12.0
290
     0
  0
SCALE
  5
9A
102
{ACAD_REACTORS
330
7C
102
}
330
7C
100
AcDbScale
 70
     0
300
1-1/2" = 1'-0"
140
1.5
141
12.0
290
     0
  0
SCALE
  5
9B
102
{ACAD_REACTORS
330
7C
102
}
330
7C
100
AcDbScale
 70
     0
300
3" = 1'-0"
140
3.0
141
12.0
290
     0
  0
SCALE
  5
9C
102
{ACAD_REACTORS
330
7C
102
}
330
7C
100
AcDbScale
 70
     0
300
6" = 1'-0"
140
6.0
141
12.0
290
     0
  0
SCALE
  5
9D
102
{ACAD_REACTORS
330
7C
102
}
330
7C
100
AcDbScale
 70
     0
300
1'-0" = 1'-0"
140
12.0
141
12.0
290
     0
  0
TABLESTYLE
  5
53
102
{ACAD_REACTORS
330
52
102
}
102
{ACAD_XDICTIONARY
360
40B
102
}
330
52
100
AcDbTableStyle
  3

 70
     0
 71
     0
 40
0.05
 41
0.05
280
     0
281
     0
  7
Standard
140
0.15
170
     5
 62
     0
 63
   257
283
     0
 90
      512
 91
        0
  1

274
    -2
284
     1
 64
     0
275
    -2
285
     1
 65
     0
276
    -2
286
     1
 66
     0
277
    -2
287
     1
 67
     0
278
    -2
288
     1
 68
     0
279
    -2
289
     1
 69
     0
  7
Standard
140
0.15
170
     5
 62
     0
 63
   257
283
     0
 90
      512
 91
        0
  1

274
    -2
284
     1
 64
     0
275
    -2
285
     1
 65
     0
276
    -2
286
     1
 66
     0
277
    -2
287
     1
 67
     0
278
    -2
288
     1
 68
     0
279
    -2
289
     1
 69
     0
  7
Standard
140
0.15
170
     5
 62
     0
 63
   257
283
     0
 90
      512
 91
        0
  1

274
    -2
284
     1
 64
     0
275
    -2
285
     1
 65
     0
276
    -2
286
     1
 66
     0
277
    -2
287
     1
 67
     0
278
    -2
288
     1
 68
     0
279
    -2
289
     1
 69
     0
  0
VISUALSTYLE
  5
2F
102
{ACAD_REACTORS
330
2A
102
}
330
2A
100
AcDbVisualStyle
  2
2dWireframe
 70
     4
 71
     0
 72
     2
 73
     0
 90
        0
 40
-0.6
 41
-30.0
 62
     5
 63
     7
421
 16777215
 74
     1
 91
        4
 64
     7
 65
   257
 75
     1
175
     1
 42
1.0
 92
        0
 66
   257
 43
1.0
 76
     1
 77
     6
 78
     2
 67
     7
 79
     5
170
     0
171
     0
290
     0
174
     0
 93
        1
 44
0.0
173
     0
291
     0
 45
0.0
  0
VISUALSTYLE
  5
31
102
{ACAD_REACTORS
330
2A
102
}
330
2A
100
AcDbVisualStyle
  2
3D Hidden
 70
     6
 71
     1
 72
     2
 73
     2
 90
        0
 40
-0.6
 41
-30.0
 62
     5
 63
     7
421
 16777215
 74
     2
 91
        2
 64
     7
 65
   257
 75
     2
175
     1
 42
40.0
 92
        0
 66
   257
 43
1.0
 76
     1
 77
     6
 78
     2
 67
     7
 79
     3
170
     0
171
     0
290
     0
174
     0
 93
        1
 44
0.0
173
     0
291
     0
 45
0.0
  0
VISUALSTYLE
  5
30
102
{ACAD_REACTORS
330
2A
102
}
330
2A
100
AcDbVisualStyle
  2
3dWireframe
 70
     5
 71
     0
 72
     2
 73
     0
 90
        0
 40
-0.6
 41
-30.0
 62
     5
 63
     7
421
 16777215
 74
     1
 91
        4
 64
     7
 65
   257
 75
     1
175
     1
 42
1.0
 92
        0
 66
   257
 43
1.0
 76
     1
 77
     6
 78
     2
 67
     7
 79
     5
170
     0
171
     0
290
     0
174
     0
 93
        1
 44
0.0
173
     0
291
     0
 45
0.0
  0
VISUALSTYLE
  5
32
102
{ACAD_REACTORS
330
2A
102
}
330
2A
100
AcDbVisualStyle
  2
Basic
 70
     7
 71
     1
 72
     0
 73
     1
 90
        0
 40
-0.6
 41
-30.0
 62
     5
 63
     7
421
 16777215
 74
     0
 91
        4
 64
     7
 65
   257
 75
     1
175
     1
 42
1.0
 92
        8
 66
     7
 43
1.0
 76
     1
 77
     6
 78
     2
 67
     7
 79
     5
170
     0
171
     0
290
     0
174
     0
 93
        1
 44
0.0
173
     0
291
     1
 45
0.0
  0
VISUALSTYLE
  5
36
102
{ACAD_REACTORS
330
2A
102
}
330
2A
100
AcDbVisualStyle
  2
Brighten
 70
    12
 71
     2
 72
     2
 73
     0
 90
        0
 40
-0.6
 41
-30.0
 62
     5
 63
     7
421
 16777215
 74
     1
 91
        4
 64
     7
 65
   257
 75
     1
175
     1
 42
1.0
 92
        8
 66
     7
 43
1.0
 76
     1
 77
     6
 78
     2
 67
     7
 79
     5
170
     0
171
     0
290
     0
174
     0
 93
        1
 44
50.0
173
     0
291
     1
 45
0.0
  0
VISUALSTYLE
  5
3A
102
{ACAD_REACTORS
330
2A
102
}
330
2A
100
AcDbVisualStyle
  2
ColorChange
 70
    16
 71
     2
 72
     2
 73
     3
 90
        0
 40
-0.6
 41
-30.0
 62
     5
 63
     8
421
  8421504
 74
     1
 91
        4
 64
     7
 65
   257
 75
     1
175
     1
 42
1.0
 92
        8
 66
     8
424
  8421504
 43
1.0
 76
     1
 77
     6
 78
     2
 67
     7
 79
     5
170
     0
171
     0
290
     0
174
     0
 93
        1
 44
0.0
173
     0
291
     1
 45
0.0
  0
VISUALSTYLE
  5
34
102
{ACAD_REACTORS
330
2A
102
}
330
2A
100
AcDbVisualStyle
  2
Conceptual
 70
     9
 71
     3
 72
     2
 73
     0
 90
        0
 40
-0.6
 41
-30.0
 62
     5
 63
     7
421
 16777215
 74
     2
 91
        2
 64
     7
 65
   257
 75
     1
175
     1
 42
40.0
 92
        8
 66
     7
 43
1.0
 76
     1
 77
     6
 78
     2
 67
     7
 79
     3
170
     0
171
     0
290
     0
174
     0
 93
        1
 44
0.0
173
     0
291
     0
 45
0.0
  0
VISUALSTYLE
  5
35
102
{ACAD_REACTORS
330
2A
102
}
330
2A
100
AcDbVisualStyle
  2
Dim
 70
    11
 71
     2
 72
     2
 73
     0
 90
        0
 40
-0.6
 41
-30.0
 62
     5
 63
     7
421
 16777215
 74
     1
 91
        4
 64
     7
 65
   257
 75
     1
175
     1
 42
1.0
 92
        8
 66
     7
 43
1.0
 76
     1
 77
     6
 78
     2
 67
     7
 79
     5
170
     0
171
     0
290
     0
174
     0
 93
        1
 44
-50.0
173
     0
291
     1
 45
0.0
  0
VISUALSTYLE
  5
39
102
{ACAD_REACTORS
330
2A
102
}
330
2A
100
AcDbVisualStyle
  2
Facepattern
 70
    15
 71
     2
 72
     2
 73
     0
 90
        0
 40
-0.6
 41
-30.0
 62
     5
 63
     7
421
 16777215
 74
     1
 91
        4
 64
     7
 65
   257
 75
     1
175
     1
 42
1.0
 92
        8
 66
     7
 43
1.0
 76
     1
 77
     6
 78
     2
 67
     7
 79
     5
170
     0
171
     0
290
     0
174
     0
 93
        1
 44
0.0
173
     0
291
     1
 45
0.0
  0
VISUALSTYLE
  5
2B
102
{ACAD_REACTORS
330
2A
102
}
330
2A
100
AcDbVisualStyle
  2
Flat
 70
     0
 71
     2
 72
     1
 73
     1
 90
        2
 40
-0.6
 41
30.0
 62
     5
 63
     7
421
 16777215
 74
     0
 91
        4
 64
     7
 65
   257
 75
     1
175
     1
 42
1.0
 92
        8
 66
     7
 43
1.0
 76
     1
 77
     6
 78
     2
 67
     7
 79
     5
170
     0
171
     0
290
     0
174
     0
 93
       13
 44
0.0
173
     0
291
     1
 45
0.0
  0
VISUALSTYLE
  5
2C
102
{ACAD_REACTORS
330
2A
102
}
330
2A
100
AcDbVisualStyle
  2
FlatWithEdges
 70
     1
 71
     2
 72
     1
 73
     1
 90
        2
 40
-0.6
 41
30.0
 62
     5
 63
     7
421
 16777215
 74
     1
 91
        4
 64
     7
 65
   257
 75
     1
175
     1
 42
1.0
 92
        0
 66
   257
 43
1.0
 76
     1
 77
     6
 78
     2
 67
     7
 79
     5
170
     0
171
     0
290
     0
174
     0
 93
       13
 44
0.0
173
     0
291
     1
 45
0.0
  0
VISUALSTYLE
  5
2D
102
{ACAD_REACTORS
330
2A
102
}
330
2A
100
AcDbVisualStyle
  2
Gouraud
 70
     2
 71
     2
 72
     2
 73
     1
 90
        2
 40
-0.6
 41
30.0
 62
     5
 63
     7
421
 16777215
 74
     0
 91
        4
 64
     7
 65
   257
 75
     1
175
     1
 42
1.0
 92
        0
 66
     7
 43
1.0
 76
     1
 77
     6
 78
     2
 67
     7
 79
     5
170
     0
171
     0
290
     0
174
     0
 93
       13
 44
0.0
173
     0
291
     1
 45
0.0
  0
VISUALSTYLE
  5
2E
102
{ACAD_REACTORS
330
2A
102
}
330
2A
100
AcDbVisualStyle
  2
GouraudWithEdges
 70
     3
 71
     2
 72
     2
 73
     1
 90
        2
 40
-0.6
 41
30.0
 62
     5
 63
     7
421
 16777215
 74
     1
 91
        4
 64
     7
 65
   257
 75
     1
175
     1
 42
1.0
 92
        0
 66
   257
 43
1.0
 76
     1
 77
     6
 78
     2
 67
     7
 79
     5
170
     0
171
     0
290
     0
174
     0
 93
       13
 44
0.0
173
     0
291
     1
 45
0.0
  0
VISUALSTYLE
  5
38
102
{ACAD_REACTORS
330
2A
102
}
330
2A
100
AcDbVisualStyle
  2
Linepattern
 70
    14
 71
     2
 72
     2
 73
     0
 90
        0
 40
-0.6
 41
-30.0
 62
     5
 63
     7
421
 16777215
 74
     1
 91
        4
 64
     7
 65
   257
 75
     7
175
     7
 42
1.0
 92
        8
 66
     7
 43
1.0
 76
     1
 77
     6
 78
     2
 67
     7
 79
     5
170
     0
171
     0
290
     0
174
     0
 93
        1
 44
0.0
173
     0
291
     1
 45
0.0
  0
VISUALSTYLE
  5
33
102
{ACAD_REACTORS
330
2A
102
}
330
2A
100
AcDbVisualStyle
  2
Realistic
 70
     8
 71
     2
 72
     2
 73
     0
 90
        0
 40
-0.6
 41
-30.0
 62
     5
 63
     7
421
 16777215
 74
     1
 91
        0
 64
     7
 65
   257
 75
     1
175
     1
 42
1.0
 92
        8
 66
     8
424
  7895160
 43
1.0
 76
     1
 77
     6
 78
     2
 67
     7
 79
     5
170
     0
171
     0
290
     0
174
     0
 93
       13
 44
0.0
173
     0
291
     0
 45
0.0
  0
VISUALSTYLE
  5
37
102
{ACAD_REACTORS
330
2A
102
}
330
2A
100
AcDbVisualStyle
  2
Thicken
 70
    13
 71
     2
 72
     2
 73
     0
 90
        0
 40
-0.6
 41
-30.0
 62
     5
 63
     7
421
 16777215
 74
     1
 91
        4
 64
     7
 65
   257
 75
     1
175
     1
 42
1.0
 92
       12
 66
     7
 43
1.0
 76
     1
 77
     6
 78
     2
 67
     7
 79
     5
170
     0
171
     0
290
     0
174
     0
 93
        1
 44
0.0
173
     0
291
     1
 45
0.0
  0
DICTIONARYVAR
  5
40A
102
{ACAD_REACTORS
330
409
102
}
330
409
100
DictionaryVariables
280
     0
  1
1:1
  0
DICTIONARY
  5
3A6
330
3A5
100
AcDbDictionary
280
     1
281
     1
  3
TC_OPTIONAL_DATA
360
3A7
  0
DICTIONARY
  5
3AE
330
3AD
100
AcDbDictionary
280
     1
281
     1
  3
TC_OPTIONAL_DATA
360
3AF
  0
DICTIONARY
  5
3B6
330
3B5
100
AcDbDictionary
280
     1
281
     1
  3
TC_OPTIONAL_DATA
360
3B7
  0
DICTIONARY
  5
3E0
330
3DF
100
AcDbDictionary
280
     1
281
     1
  3
TC_OPTIONAL_DATA
360
3E1
  0
DICTIONARY
  5
3E8
330
3E7
100
AcDbDictionary
280
     1
281
     1
  3
TC_OPTIONAL_DATA
360
3E9
  0
DICTIONARY
  5
3F0
330
3EF
100
AcDbDictionary
280
     1
281
     1
  3
TC_OPTIONAL_DATA
360
3F1
  0
DICTIONARY
  5
12B
330
12A
100
AcDbDictionary
280
     1
281
     1
  3
TC_OPTIONAL_DATA
360
12C
  0
DICTIONARY
  5
168
330
167
100
AcDbDictionary
280
     1
281
     1
  3
TC_OPTIONAL_DATA
360
169
  0
DICTIONARY
  5
170
330
16F
100
AcDbDictionary
280
     1
281
     1
  3
TC_OPTIONAL_DATA
360
171
  0
DICTIONARY
  5
187
330
186
100
AcDbDictionary
280
     1
281
     1
  3
TC_OPTIONAL_DATA
360
188
  0
DICTIONARY
  5
18F
330
18E
100
AcDbDictionary
280
     1
281
     1
  3
TC_OPTIONAL_DATA
360
190
  0
DICTIONARY
  5
40B
330
53
100
AcDbDictionary
280
     1
281
     1
  3
ACAD_ROUNDTRIP_2008_TABLESTYLE_CELLSTYLEMAP
360
40C
  0
TCOPTIONALDATA
  5
3A7
102
{ACAD_REACTORS
330
3A6
102
}
330
3A6
100
TcOptionalData
 70
     1
 70
     2
 10
239.6721715724525
 20
0.6987627556338492
 30
0.0
  0
TCOPTIONALDATA
  5
3AF
102
{ACAD_REACTORS
330
3AE
102
}
330
3AE
100
TcOptionalData
 70
     1
 70
     2
 10
193.1942791897263
 20
0.6987627556338492
 30
0.0
  0
TCOPTIONALDATA
  5
3B7
102
{ACAD_REACTORS
330
3B6
102
}
330
3B6
100
TcOptionalData
 70
     1
 70
     2
 10
216.367392672332
 20
0.6987627556338492
 30
0.0
  0
TCOPTIONALDATA
  5
3E1
102
{ACAD_REACTORS
330
3E0
102
}
330
3E0
100
TcOptionalData
 70
     1
 70
     2
 10
239.6926776896667
 20
76.55623186544
 30
0.0
  0
TCOPTIONALDATA
  5
3E9
102
{ACAD_REACTORS
330
3E8
102
}
330
3E8
100
TcOptionalData
 70
     1
 70
     2
 10
193.2147853069405
 20
76.55623186544
 30
0.0
  0
TCOPTIONALDATA
  5
3F1
102
{ACAD_REACTORS
330
3F0
102
}
330
3F0
100
TcOptionalData
 70
     1
 70
     2
 10
216.3878987895462
 20
76.55623186544
 30
0.0
  0
TCOPTIONALDATA
  5
12C
102
{ACAD_REACTORS
330
12B
102
}
330
12B
100
TcOptionalData
 70
     1
 70
     2
 10
76.51949496599306
 20
-6.994468050960919
 30
0.0
  0
TCOPTIONALDATA
  5
169
102
{ACAD_REACTORS
330
168
102
}
330
168
100
TcOptionalData
 70
     1
 70
     2
 10
27.28824029452979
 20
3.165727458076912
 30
0.0
  0
TCOPTIONALDATA
  5
171
102
{ACAD_REACTORS
330
170
102
}
330
170
100
TcOptionalData
 70
     1
 70
     2
 10
48.02554355311137
 20
3.16276597451954
 30
0.0
  0
TCOPTIONALDATA
  5
188
102
{ACAD_REACTORS
330
187
102
}
330
187
100
TcOptionalData
 70
     1
 70
     2
 10
25.77153368475804
 20
0.7427778268100642
 30
0.0
  0
TCOPTIONALDATA
  5
190
102
{ACAD_REACTORS
330
18F
102
}
330
18F
100
TcOptionalData
 70
     1
 70
     2
 10
49.52616942805386
 20
0.7427778268100642
 30
0.0
  0
CELLSTYLEMAP
  5
40C
102
{ACAD_REACTORS
330
40B
102
}
330
40B
100
AcDbCellStyleMap
 90
        3
300
CELLSTYLE
  1
TABLEFORMAT_BEGIN
 90
        5
170
     1
 91
        0
 92
        0
 62
   257
 93
        1
300
CONTENTFORMAT
  1
CONTENTFORMAT_BEGIN
 90
        0
 91
        0
 92
      512
 93
        0
300

 40
0.0
140
1.0
 94
        5
 62
     0
340
11
144
0.15
309
CONTENTFORMAT_END
171
     0
 94
        6
 95
        1
302
GRIDFORMAT
  1
GRIDFORMAT_BEGIN
 90
        0
 91
        1
 62
     0
 92
       -2
340
0
 93
        0
 40
0.0
309
GRIDFORMAT_END
 95
        2
302
GRIDFORMAT
  1
GRIDFORMAT_BEGIN
 90
        0
 91
        1
 62
     0
 92
       -2
340
0
 93
        0
 40
0.0
309
GRIDFORMAT_END
 95
        4
302
GRIDFORMAT
  1
GRIDFORMAT_BEGIN
 90
        0
 91
        1
 62
     0
 92
       -2
340
0
 93
        0
 40
0.0
309
GRIDFORMAT_END
 95
        8
302
GRIDFORMAT
  1
GRIDFORMAT_BEGIN
 90
        0
 91
        1
 62
     0
 92
       -2
340
0
 93
        0
 40
0.0
309
GRIDFORMAT_END
 95
       16
302
GRIDFORMAT
  1
GRIDFORMAT_BEGIN
 90
        0
 91
        1
 62
     0
 92
       -2
340
0
 93
        0
 40
0.0
309
GRIDFORMAT_END
 95
       32
302
GRIDFORMAT
  1
GRIDFORMAT_BEGIN
 90
        0
 91
        1
 62
     0
 92
       -2
340
0
 93
        0
 40
0.0
309
GRIDFORMAT_END
309
TABLEFORMAT_END
  1
CELLSTYLE_BEGIN
 90
        3
 91
        2
300
_DATA
309
CELLSTYLE_END
300
CELLSTYLE
  1
TABLEFORMAT_BEGIN
 90
        5
170
     1
 91
        0
 92
        0
 62
   257
 93
        1
300
CONTENTFORMAT
  1
CONTENTFORMAT_BEGIN
 90
        0
 91
        0
 92
      512
 93
        0
300

 40
0.0
140
1.0
 94
        5
 62
     0
340
11
144
0.15
309
CONTENTFORMAT_END
171
     0
 94
        6
 95
        1
302
GRIDFORMAT
  1
GRIDFORMAT_BEGIN
 90
        0
 91
        1
 62
     0
 92
       -2
340
0
 93
        0
 40
0.0
309
GRIDFORMAT_END
 95
        2
302
GRIDFORMAT
  1
GRIDFORMAT_BEGIN
 90
        0
 91
        1
 62
     0
 92
       -2
340
0
 93
        0
 40
0.0
309
GRIDFORMAT_END
 95
        4
302
GRIDFORMAT
  1
GRIDFORMAT_BEGIN
 90
        0
 91
        1
 62
     0
 92
       -2
340
0
 93
        0
 40
0.0
309
GRIDFORMAT_END
 95
        8
302
GRIDFORMAT
  1
GRIDFORMAT_BEGIN
 90
        0
 91
        1
 62
     0
 92
       -2
340
0
 93
        0
 40
0.0
309
GRIDFORMAT_END
 95
       16
302
GRIDFORMAT
  1
GRIDFORMAT_BEGIN
 90
        0
 91
        1
 62
     0
 92
       -2
340
0
 93
        0
 40
0.0
309
GRIDFORMAT_END
 95
       32
302
GRIDFORMAT
  1
GRIDFORMAT_BEGIN
 90
        0
 91
        1
 62
     0
 92
       -2
340
0
 93
        0
 40
0.0
309
GRIDFORMAT_END
309
TABLEFORMAT_END
  1
CELLSTYLE_BEGIN
 90
        1
 91
        1
300
_TITLE
309
CELLSTYLE_END
300
CELLSTYLE
  1
TABLEFORMAT_BEGIN
 90
        5
170
     1
 91
        0
 92
        0
 62
   257
 93
        1
300
CONTENTFORMAT
  1
CONTENTFORMAT_BEGIN
 90
        0
 91
        0
 92
      512
 93
        0
300

 40
0.0
140
1.0
 94
        5
 62
     0
340
11
144
0.15
309
CONTENTFORMAT_END
171
     0
 94
        6
 95
        1
302
GRIDFORMAT
  1
GRIDFORMAT_BEGIN
 90
        0
 91
        1
 62
     0
 92
       -2
340
0
 93
        0
 40
0.0
309
GRIDFORMAT_END
 95
        2
302
GRIDFORMAT
  1
GRIDFORMAT_BEGIN
 90
        0
 91
        1
 62
     0
 92
       -2
340
0
 93
        0
 40
0.0
309
GRIDFORMAT_END
 95
        4
302
GRIDFORMAT
  1
GRIDFORMAT_BEGIN
 90
        0
 91
        1
 62
     0
 92
       -2
340
0
 93
        0
 40
0.0
309
GRIDFORMAT_END
 95
        8
302
GRIDFORMAT
  1
GRIDFORMAT_BEGIN
 90
        0
 91
        1
 62
     0
 92
       -2
340
0
 93
        0
 40
0.0
309
GRIDFORMAT_END
 95
       16
302
GRIDFORMAT
  1
GRIDFORMAT_BEGIN
 90
        0
 91
        1
 62
     0
 92
       -2
340
0
 93
        0
 40
0.0
309
GRIDFORMAT_END
 95
       32
302
GRIDFORMAT
  1
GRIDFORMAT_BEGIN
 90
        0
 91
        1
 62
     0
 92
       -2
340
0
 93
        0
 40
0.0
309
GRIDFORMAT_END
309
TABLEFORMAT_END
  1
CELLSTYLE_BEGIN
 90
        2
 91
        1
300
_HEADER
309
CELLSTYLE_END
  0
ENDSEC
  0
SECTION
  2
THUMBNAILIMAGE
 90
    16364
310
28000000B40000005500000001000800000000000000000000000000000000000000000000000000FFFFFF000000FF0000FFFF0000FF0000FFFF0000FF000000FF00FF000000000080808000C0C0C0000000FF007F7FFF000000A5005252A50000007F003F3F7F0000004C0026264C000000260013132600003FFF007F9FFF
310
000029A5005267A500001F7F003F4F7F0000134C00262F4C000009260013172600007FFF007FBFFF000052A500527CA500003F7F003F5F7F0000264C0026394C0000132600131C260000BFFF007FDFFF00007CA5005291A500005F7F003F6F7F0000394C0026424C00001C26001321260000FFFF007FFFFF0000A5A50052A5
310
A500007F7F003F7F7F00004C4C00264C4C00002626001326260000FFBF007FFFDF0000A57C0052A59100007F5F003F7F6F00004C3900264C420000261C001326210000FF7F007FFFBF0000A5520052A57C00007F3F003F7F5F00004C2600264C39000026130013261C0000FF3F007FFF9F0000A5290052A56700007F1F003F
310
7F4F00004C1300264C2F00002609001326170000FF00007FFF7F0000A5000052A55200007F00003F7F3F00004C0000264C260000260000132613003FFF00009FFF7F0029A5000067A552001F7F00004F7F3F00134C00002F4C260009260000172613007FFF0000BFFF7F0052A500007CA552003F7F00005F7F3F00264C0000
310
394C2600132600001C261300BFFF0000DFFF7F007CA5000091A552005F7F00006F7F3F00394C0000424C26001C26000021261300FFFF0000FFFF7F00A5A50000A5A552007F7F00007F7F3F004C4C00004C4C26002626000026261300FFBF0000FFDF7F00A57C0000A59152007F5F00007F6F3F004C3900004C422600261C00
310
0026211300FF7F0000FFBF7F00A5520000A57C52007F3F00007F5F3F004C2600004C39260026130000261C1300FF3F0000FF9F7F00A5290000A56752007F1F00007F4F3F004C1300004C2F26002609000026171300FF000000FF7F7F00A5000000A55252007F0000007F3F3F004C0000004C2626002600000026131300FF00
310
3F00FF7F9F00A5002900A55267007F001F007F3F4F004C0013004C262F002600090026131700FF007F00FF7FBF00A5005200A5527C007F003F007F3F5F004C0026004C2639002600130026131C00FF00BF00FF7FDF00A5007C00A55291007F005F007F3F6F004C0039004C26420026001C0026132100FF00FF00FF7FFF00A5
310
00A500A552A5007F007F007F3F7F004C004C004C264C002600260026132600BF00FF00DF7FFF007C00A5009152A5005F007F006F3F7F0039004C0042264C001C002600211326007F00FF00BF7FFF005200A5007C52A5003F007F005F3F7F0026004C0039264C00130026001C1326003F00FF009F7FFF002900A5006752A500
310
1F007F004F3F7F0013004C002F264C000900260017132600000000002D2D2D005B5B5B0089898900B7B7B700B3B3B30000000000000000000000000000000000000000000000000000000000000000000000000000000000000000000000000000000000000000000000000000000000000000000000000000000000000000
310
00000000000000000000000000000000000000000000000000000000000000000000000000000000000000000000000000000000000000000000000000000000000000000000000000000000000000000000000000000000000000000000000000000000000000000000000000000000000000000000000000000000000000
310
00000000000000000000000000000000000000000000000000000000000000000000000000000000000000000000000000000000000000000000000000000000000000000000000000000000000000000000000000000000000000000000000000000000000000000000000000000000000000000000000000000000000000
310
00000000000000000000000000000000000000000000000000000000000000000000000000000000000000000000000000000007070707070707070707070707070707070707070707070707070707070707070707070707070707070707070707070707070707070707070707070707070707070707070707070000000000
310
00000000000000000000000000000000000000000000000000000000000000000000000000000000000000000000000000000000000000000000000000000000000000000000000000000000000000000000000000000000000000000000000000000000000000000707070707070707070707070707070707070707070707
310
07070707070707070707070707070707070707070707070707070707070707070707070707070707070707070707070700000000000000000000000000000000000000000000000000000000000000000000000000000000000000000000000000000000000000000000000000000000000000000000000000000000000000
310
00000000000000000000000000000000000000000000000000000000000000000000000000000000000000000000000000000000000000000000000000000000000000000000000000000000000000000000000000000000000000000000000000000000000000000000000000000000000000000000000000000000000000
310
00000000000000000000000000000000000000000000000000000000000000000000000000000000000000000000000000000000000000000000000000000000000000000000000000000000000000000000000000000000000000000000000000000000000000000000000000000000000000000000000000000000000000
310
00000000000000000000000000000000000000000000000000000000000000000000000000000000000000000000000000000000000000000000070000000000000000000000000000000000000000000000000000000000000000000000000000000000000000000000000000000000000000000000000000000000000000
310
00000000000000000000000000000000000000000000000000000000000000000000000000000000000000000000000000000000000000000000000000000000000000000000000000000000000000000000000000000000000000000000000000000000000000000000000000000007000000000000000000000000000000
310
00000000000000000000000000000000000000000000000000000000000000000000000000000000000000000000000000000000000000000000000000000000000000000000000000000000000000000000000000000000000000000000000000000000000000000000000000000000000000000000000000000000000000
310
00000000000000000000000000000000000000000000000000000000000000000000000000070000000000000000000000000000000000000000000000000000000000000000000000000000000000000000000000000000000000000000000000000000000000000007070707070707070707070707070707070707070707
310
07070707070707070505050707070707070707070707070707070707070707070707070707070707070707070707070707070707070707070707070707070700000000000000000007070707070507050707070707070707070707070707070707070707070705070507070707070000000000000000000000000000000000
310
00000000000000000000000000000000000000000000000000000000000000000000000000000000000000000000000000000000000000000000000505000000050505000000000000000000000000000000000000000000000000000000000000000000000000000000000000000000000000000000000000000000000000
310
00000005000500000000000000000000070000000000000000000000050005000000000000000000000000000000000000000000000000000000000000000000000000000000000000000000000000000000000000000000000000000000000000000000000000000000000000000000050505050505050500000000000000
310
00000000000000000000000000000000000000000000000000000000000000000000000000000000000000000000000000000000000000000500050000000000000000000007000000000000000000000005000500000000000000000000000000000000000000000000000000000000000000000000000000000000000000
310
00000000000000000000000000000000000000000000000000000000000000000000000000050005050005050505000000000000000000000000000000000000000000000000000000000000000000000000000000000000000000000000000000000000000000000000000000050005000000000000000000000700000000
310
00000000000000050005000000000000000000000000000000000000000000000000000000000000000000000000000000000000000000000000000000000000000000000000000000000000000000000000000000000000000005000500050505050005000000000000000000000000000000000000000000000000000000
310
00000000000000000000000000000000000000000000000000000000000000000000000500050505050505050505050505050505050505050505050505000500000000000000000000000000000000000000000000000000000000000000000000000000000000000000000000000000000000000000000000000000000000
310
00000000000000000000000000000000050005050505050500050000000000000000000000000000000000000000000000000000000000000000000000000000000000000000000000000000000000000000000000000000050005050505050505050505050505050505050505050505050500050000000000000000000000
310
00000000000000000000000000000000000000000000000000000000000000000000000000000000000000000000000000000000000000000000000000000000000000000505050505050505050505000000000000000000000000000000000505050505050505050505050505050505050505050505050505050505000000
310
00000000000000000000000000000500050505050505050505050505050505050505050505050505000500000000000000000000000000000000000000000000000000000000000000000000000000000000000000000000000000000000000000000000000000000000000000000000050505050505050505050505050505
310
05050505050505050505050505050505050505050505050505050505050505050505050505050505050505050505050505050000000000000000000000000000000000050005050505050505050505050505050505050505050505050500050000000000000000000000000000000000000000000000000000000000000000
310
00000000000000000000000000000000000000000000000000000000000000000000000000000707070707070707070707050505050505050507070707070707070707070707070707070707070707070707070000000000000000000000000000000505050000000000000000000000000000000000000001010101010101
310
01010101010101010101010101010101010101010100000000000000000000000000000000000000000000000000000000000000000000000000000000000000000000000000000000000000000000000000000000000000000707010101010101010101010107000505050500070101010101010101010101010101010101
310
01010101010101010107000000000000000000000000000000000000000000000000000000000000000000000000010101010101010101010101010101010101010101010101010101010000000000000000000000000000000000000000000000000000000000000000000000000000000000000000000000000000000000
310
00000000000000000000000000000700000000000000000000000101000707070707070001000000000000000007070707070707070707070707000000000007000000000000000000000000000000000000000000000000000000000000000000000001000001000000000000000000070000000000000000000001000001
310
00000000000000000000000000000000000000000000000000000000000000000000000000000000000000000000000000000000000000000000000000000000000000070000000000000000000000010101010101010101010100000000000000000700000000000000000000000700000000000007000000000000000000
310
00000000000000000000000000000000000000000000000000010101010000000000000000000700000000000000000000010101010000000000000000000000000000000000000000000000000000000000000000000000000000000000000000000000000000000000000000000000000000000000000007000000000000
310
00000000000000000000000000000000000000000000000007000000000000000000000007000000000000000700000000000000000000000000000000000000000000000000000000000000000007000000000000000000000000070000000000000000000000000007000000000000000000000000000000000000000000
310
00000000000000000000000000000000000000000000000000000000000000000000000000000000000000000000070000000000000000000000000000000000000000000000000000000000000700000000000000000000000700000000000000000700000000000000000000000000000000000000000000000000000000
310
00000000070707070707070707070707070707070707070707070707070707070000000000000000000000000000000000000000000000000000000000000000000000000000000000000000000000000000000000000000000000000000000000000007000000000000000000000000000000000000000000000000000000
310
00000007000000000000000000000007000000000000000007000000000000000000000000000000000000000000000000000000000000000007000000000000000000000000070000000000000000000000000007000000000000000000000000000000000000000000000000000000000000000000000000000000000000
310
00000000000000000000000000000000000000000000000000070000000000000000000000000000000000000000000000000000000000000700000000000000000000000700000000000000000700000000000000000000000000000000000000000000000000000000000000000700000000000000000000000007000000
310
00000000000000000000070000000000000000000000000000000000000000000000000000000000000000000000000000000000000000000000000000000000000000000000000000000000000007000000000000000000000000000000000000000000000000000000000000070000000000000000000000070000000000
310
00000007000000000000000000000000000000000000000000000000000000000000000007000000000000000000000000070000000000000000000000000007000000000000000000000000000000000000000000000000000000000000000000000000000000000000000000000000000000000000000000000000000000
310
00000000070000000000000000000000000000000000000000000000000000000000000700000000000000000000000700000000000000000700000000000000000000000000000000000000000000000000000000000000000700000000000000000000000007000000000000000000000000000700000000000000000000
310
00000000000000000000000000000000000000000000000000000000000000000000000000000000000000000000000000000000000000000007000000000000000000000000000000000000000000000000000000000000070000000000000000000000070000000000000000070000000000000000000000000000000000
310
00000000000000000000000000000007000000000000000000000000070000000000000000000000000007000000000000000000000000000000000000000000000000000000000000000000000000000000000000000000000000000000000000000000000000000000000000000700000000000000000000000000000000
310
00000000000000000000000000000700000000000000000000000700000000000000000700000000000000000000000000000000000000000000000000000000000000000700000000000000000000000007000000000000000000000000000700000000000000000000000000000000000000000000000000000000000000
310
00000000000000000000000000000000000000000000000000000000000000000000000007000000000000000000000000000000000000000000000000000000000000070000000000000000000000070000000000000000070000000000000000000000000000000000000000000000000000000000000000070000000000
310
00000000000000070000000000000000000000000007000000000000000000000000000000000000000000000000000000000000000000000000000000000000000000000000000000000000000000000000000000000000000700000000000000000000000000000000000000000000000000000000000007000000000000
310
00000000000700000000000000000700000000000000000000000000000000000000000000000000000000000000000700000000000000000000000007000000000000000000000000000700000000000000000000000000000000000000000000000000000000000000000000000000000000000000000000000000000000
310
00000000000000000000000000000007070000000000000000000000000000000000000000000000000000000000070000000000000000000000070000000000000000070000000000000000000000000000000000000000000000000000000000000000070000000000000000000000000700000000000000000000000000
310
07000000000000000000000000000000000000000000000000000000000000000000000000000000000000000000000000000000000000000000000000000000000000000000070700000000000000000000000000000000000000000000000000000007000000000000000000000007000000000000000007000000000000
310
00000000000000000000000000000000000000000000000000000700000000000000000000000007000000000000000000000000000700000000000000000000000000000000000000000000000000000000000000000000000000000000000000000000000000000000000000000000000000000000000000000000000707
310
07000000000000000000000000000000000000000000000000070000000000000000000000070000000000000007070000000000000000000000000000000000000000000000000000000000000000070707070707070707070707070707070707070707070707070707070000000000000000000000000000000000000000
310
00000000000000000000000000000000000000000000000000000000000000000000000000000000000000000000000000000000000007070000000000000000000000000000000000000000000007000000000000000000000007000000000007070000000000000000000000000000000000000000000000000000000000
310
00000000000700000000000000000000000007000000000000000000000000000700000000000000000000000000000000000000000000000000000000000000000000000000000000000000000000000000000000000000000000000000000000000000000000000000000000070700000000000000000000000000000000
310
00000000070000000000000000000000070000000707000000000000000000000000000000000000000000000000000000000000000000000000070000000000000000000000000700000000000000000000000000070000000000000000000000000000000000000000000000000000000000000000000000000000000000
310
00000000000000000000000000000000000000000000000000000000000000000000000000070707000000000000000000000000000000000007070707070707070707070707070707000000000000000000000000000000000000000000000000000000000000000000000000000007000000000000000000000000070000
310
00000000000000000000000700000000000000000000000000000000000000000000000000000000000000000000000000000000000000000000000000000000000000000000000000000000000000000000000000000000000000000007070000000000000000000000000000000000000000000000000000070700000000
310
00000000000000000000000000000000000000000000000000000000000000000000000000070000000000000000000000000700000000000000000000000000070000000000000000000000000000000000000000000000000000000000000000000000000000000000000000000000000000000000000000000000000000
310
00000000000000000000000000000000000000000007070707070707070707070707070707070707070707070707070000000000000000000000000000000000000000000000000000000000000000000000000000000000000007070707070707070707070707070707070707070707070707070707000000000000000000
310
00000000000000000000000000000000000000000000000000000000000000000000000000000000000000000000000000000000000000000000000000000000000000000000000000000000000000000000000000000000000000000000000000000000000000000000000000000000000000000000000000000000000000
310
00000000000000000000000000000000000000000000000000000000000700000000000000000000000000000000000000000000000000000000000000000000000000000000000000000000000000000000000000000000000000000000000000000000000000000000000000000000000000000000000000000000000000
310
00000000000000000000000000000000000000000000000000000000000000000000000000000000000000000707070707070707070707070707070700000000000000000000000000000000000000000000070000000000000000000000000000000000000000000000000000000000000000000000000000000000000000
310
00000000000000000000000000000000000000000000000000000000000000000000000000000000000000000000000000000000000000000000000000000000000000000000000000000000000000000000000000000000000000000000000000070707070707070707070707070707000000000000000000000000000000
310
00000000000000000700000000000000000000000000000000000000000000000000000000000000000000000000000000000000000000000000000000000000000000000000000000000000000000000000000000000000000000000000000000000000000000000000000000000000000000000000000000000000000000
310
00000000000000000000000000000000000000000000000707070707070707070707070707070000000000000000000000000000000000000000000000070000000000000000000000000000000000000000000000000000000000000000000000000000000000000000000000000000000000000000000000000000000000
310
00000000000000000000000000000000000000000000000000000000000000000000000000000000000000000000000000000000000000000000000000000000000000000000000000000000070007070000070707070700000007000000000007070707070507050707070707070707070707070707070707070707070705
310
07050707070707000000000000000000000000000000000000000000000000000000000000000000000000000000000000000000000000000000000000000000000000000000000000000000000000000000000000000000000000000000000000000000000000000000000000000000000000000000000000000000000000
310
00000000000000000000000000000000000000000000000000000005000500000000000000000000070000000000000000000000050005000000000000000000000000000000000000000000000000000000000000000000000000000000000000000000000000000000000000000000000000000000000000000000000000
310
00000000000000000000000000000000000000000000000000000000000000000000000000000000000000000000000000000000000000070700070707070707070707070707070707000000000000000500050000000000000000000007000000000000000000000005000500000000000000000000000000000000000000
310
00000000000000000000000000000000000000000000000000000000000000000000000000000000000000000000000000000000000000000000000000000000000000000000000000000000000000000000000000000000000000000000000000000000000000000000000707070007070707070707070707070707070700
310
00000000000005000500000000000000000000070000000000000000000000050005000000000000000000000000000000000000000000000000000000000000000000000000000000000000000000000000000000000000000000000000000000000000000000000000000000000000000000000000000000000000000000
310
00000000000000000000000000000000000000000000000000000000000000000007070707070707070707070707000707070707000000000000000500050505050505050505050505050505050505050505050505000500000000000000000000000000000000000000000000000000000000000000000000000000000000
310
00000000000000000000000000000000000000000000000000000000000000000000000000000000000000000000000000000000000000000000000000000000000000000000000000000000000000000000000000000000000000000000070000000000070700000000000000000000050005050505050505050505050505
310
05050505050505050505050005000000000000000000000000000000000000000000000000000000000000000000000000000000000000000000000000000000000000000000000000000000000000000000000000000000000000000000000000000000000000000000000000000000000000000000000000000000000000
310
00000000000000000000000000000000000000000000000000000000000000000000000000000500050500000000000000000007000000000000000000000505000500000000000000000000000000000000000000000000000000000000000000000000000000000000000000000000000000000000000000000000000000
310
00000000000007070701010101010101010101010707070707070707010101010101010101010101010101010101070101010101010107070707070000000000000000000000000000000000000000000000000000000000000000050005050505050505050505050505050505050505050505050500050000000000000000
310
00000000000000000000000000000000000000000000000000000000000000000000000000000000000000000000000000000000000000000000000700000101010101010101010101000000070000000001010101010101010101010101010101010107010101010101010000000007000000000000000000000000000000
310
00000000000000000000000000000000000101010101010101010101010101010101010101010101010101010100000000000000000000000000000000000000000000000000000000000000000000000000000000000000000000000000000000000000000000000000000000000000070000010100000000000000010105
310
05050505050505010100000000000000000000000000000000070000000000010100000000070000000000000000000000000000000000000000000000000000000000000000010101010101010101010101010101010101010101010101010101010000000000000000000000000000000000000000000000000000000000
310
00000000000000000000000000000000000000000000000000000000000000000000000000000700000101010101010101010101010101050501010101010101010101010101010101010101010107010101010101010000000007000000000000000000000000000000000000000000000000000000000000000001050501
310
00000000000000000007000000000000000000000105050100000000000000000000000000000000000000000000000000000000000000000000000000000000000000000000000000000000000000000000000000000000000000070000010101010101010101010101010105050101010101010101010101010101010101
310
01010101070101010101010100000000070000000000000000000000000000000000000000000000000000000000000000010101010707070707070707070707070707070707070707010101010000000000000000000000000000000000000000000000000000000000000000000000000000000000000000000000000000
310
00000000000000000000000000000000000700000101000000000000000100050500050500000001010505050000000000000000050500000007050505050501010000000007000000000000000000000000000000000000000000000000000000000000000007000000000000000000000000070000000000000000000000
310
00000700000000000000000000000000000000000000000000000000000000000000000000000000000000000000000000000000000000000000000000000000000000000000070000010100000000000000010005050005050000000101050505000000000000000005050000000700000005050101050500000700000000
310
00000000000000000000000000000000000000000000000000000000070000000000000000000000000700000000000000000000000000070000000000000000000000000000000000000000000000000000000000000000000000000000000000000000000000000000000000000000000000000000000000000007000001
310
01000000000000000100050500050500000001010505050000000000000000050500000007000000000001010505050507000000000000000000000000000000000000000000000000000000000000000007000000000000000000000000070000000000000000000000000007000000000000000000000000000000000000
310
00000000000000000000000000000000000000000000000000000000000000000000000000000000000000000000000000070000010100000000000000010005050005050000000101050505000000000000000005050000000700000000000101000005050705050000000000000000000000000000000000000000000000
310
00000000000000070000000000000000000000000700000000000000000000000000070000000000000000000000000000000000000000000000000000000000000000000000000000000000000000000000000000000000000000000000000000000000000007000001010000000000000001000505000505000000010105
310
05050000000000000000050500000007000000000001010000000007050505050500000000000000000000000000000000000000000000000000000007000000000000000000000000070000000000000000000000000007000000000000000000000000000000000000000000000000000000000000000000000000000000
310
00000000000000000000000000000000000000000000000000000000070000010100000000000000010005050005050000000101050505000000000000000005050000000700000000000101000000000700050505050505050000000000000000000000000000000000000000000000000700000000000000000000000007
310
00000000000000000000000000070000000000000000000000000000000000000000000000000000000000000000000000000000000000000000000000000000000000000000000000000000000000000007000001010000000000000001000505000505000000010105050500000000000000000505000000070000000000
310
01010000000007000505000005050505050500000000000000000000000000000000000000000007000000000000000000000000070000000000000000000000000007000000000000000000000000000000000000000000000000000000000000000000000000000000000000000000000000000000000000000000000000
310
00000000000000070000010100000000000000010005050005050000000101050505000000000000000005050000000700000000000101000000000700050500000000000505000505000000000000000000000000000000000000000700000000000000000000000007000000000000000000000000000700000000000000
310
00000000000000000000000000000000000000000000000000000000000000000000000000000000000000000000000000000000000000000000000007000001010000000000000001000505000505000000010105050500000000000000000505000000070000000000010100000000070005050000000000000505050505
310
05000000000000000000000000000000000007000000000000000000000000070000000000000000000000000007000000000000000000000000000000000000000000000000000000000000000000000000000000000000000000000000000000000007070707070707070707070707070707070101070707070707070107
310
05050705050707070101010101010101010101010101010101010101010101010101070707070707050507070707070705050505050507070707000000000000000000000000000700000000000000000000000007000000000000000000000000000700000000000000000000000000000000000000000000000000000000
310
00000000000000000000000000000000000000000000000000000000000000000000000000000007000001010000000000000001000505000505000000010105050500000000000000000505000000070000000000010100000000070005050000000000000505050505000000000000000000000000000000000000070000
310
00000000000000000000070000000000000000000000000007000000000000000000000000000000000000000000000000000000000000000000000000000000000000000000000000000000000000000000000000000000000000000700000101000000000000000100050500050500000001010505050000000000000000
310
05050000000700000000000101000000000700050500000000000505050000000000000000000000000000000000000000000707070707070707070707070707070707070707070707070707070700000000000000000000000000000000000000000000000000000000000000000000000000000000000000000000000000
310
00000000000000000000000000000000000007000001010000000000000001000505000505000000010105050500000000000000000505000000070000000000010100000000070005050000050505050000000000000000000000000000000000000000000000070000000000000000000000000700000000000000000000
310
00000007000000000000000000000000000000000000000000000000000000000000000000000000000000000000000000000000000000000000000000000000000000000000000700000101000000000000000100050500050500000001010505050000000000000000050500000007000000000001010000000007000505
310
05050500000000000000000000000000000000000000000000000000000700000000000000000000000007000000000000000000000000000700000000000000000000000000000000000000000000000000000000000000000000000000000000000000000000000000000000000000000000000000000000000000070000
310
01010000000000000001000505000505000000010105050500000000000000000505000000070000000000010100000000070505050000000000000000000000000000000000000000000000000000000000070000000000000000000000000700000000000000000000000000070000000000000000000000000000000000
310
00000000000000000000000000000000000000000000000000000000000000000000000000000000000000000000000000000700000101000000000000000100050500050500000001010505050000000000000000050500000007000000000001010000050507050000000000000000000000000000000000000000000000
310
00000000000000000700000000000000000000000007000000000000000000000000000700000000000000000000000000000000000000000000000000000000000000000000000000000000000000000000000000000000000000000000000000000000000000070000010100000000000000010005050005050000000101
310
05050500000000000000000505000000070000000000010105050500070000000000000000000000000000000000000000000000000000000000000000070000000000000000000000000700000000000000000000000000070000000000000000000000000000000000000000000000000000000000000000000000000000
310
00000000000000000000000000000000000000000000000000000000000700000101000000000000000100050500050500000001010505050000000000000000050500000007000000050501010500000007000000000000000000000000000000000000000000000000000000000000000007070707070707070707070707
310
07070707070707070707070707070700000000000000000000000000000000000000000000000000000000000000000000000000000000000000000000000000000000000000000000000000000000000000070000010100000000000000010005050005050000000101050505000000000000000005050000000705050505
310
05010100000000070000000000000000000000000000000000000000000000000000000000000000070707070707070707070707070707070707070707070707070707070000000000000000000000000000000000000000000000000000000000000000000000000000000000000000000000000000000000000000000000
310
00000000000000000700000101010101010101010101010101050501010101010101010101010101010101010101010107010101010101010000000007000000000000000000000000000000000000000000000000000000000000000000000000000000000000000000070000000000000000000000000000000000000000
310
00000000000000000000000000000000000000000000000000000000000000000000000000000000000000000000000000000000000000000000000000070000010101010101010101010101010105050101010101010101010101010101010101010101010701010101010101000000000700000000000000000000000000
310
00000000000000000000000000000000000000000000000000000000000000000700000000000000000000000000000000000000000000000000000000000000000000000000000000000000000000000000000000000000000000000000000000000000000000000000000000000000000007000001010000000000000001
310
01050505050505050501010000000000000000000000000000000007000000000001010000000007000000000000000000000000000000000000000000000000000000000000000000000000000000000000000000070000000000000000000000000000000000000000000000000000000000000000000000000000000000
310
00000000000000000000000000000000000000000000000000000000000000000000000000000000070000010101010101010101010105050507050505050101010101010101010101010101010101010701010101010101000000000700000000000000000000000000000000000000000000000000000000000000000000
310
00000000000000000000000700000000000000000000000000000000000000000000000000000000000000000000000000000000000000000000000000000000000000000000000000000000000000000000000000000000000000000007070701010101010101010101010707070707070707010101010101010101010101
310
01010101010107010101010101010707070707000000000000000000000000000000000000000000000000000000000000000000000000000000000000000000000000000000000000000000000000000000000000000000000000000000000000000000000000000000000000000000000000000000000000000000000000
310
00000000000000000000000000000000000000000000000000000000000000000000000000000000000000000000000000000000000000000000000000000000000000000000000000000000000000000000000000000000000000000000000000000000000000000000000000000000000000000000000000000000000000
310
00000000000000000000000000000000000000000000000000000000000000000000000000000000000000000000000000000000000000000000000000000000000000000000000000000000000000000000000000000000000000000000000000000000000000000000000000000000000000000000000000000000000000
310
00000000000000000000000000000000000000000000000000000000000000000000000000000000000000000000000000000000000000000000000000000000000000000000000000000000000000000000000000000000000000000000000000000000000000000000000000000000000000000000000000000000000000
310
00000000000000000000000000000000000000000000000000000000000000000000000000000000000000000000000000000000000000000000000000000000000000000000000000000000000000000000000000000000000000000000000000000000000000000000000000000000000000000000000000000000000000
310
00000000000000000000000000000000000000000000000000000000000000000000000000000000000000000000000000000000000000000000000000000000000000000000000000000000000000000000000000000000000000000000000000000000000000000000000000000000000000000000000000000000000000
310
00000000000000000000000000000000000000000000000000000000000000000000000000000000000000000000000000000000000000000000000000000000000000000000000000000000000000000000000000000000000000000000000000000000000000000000000000000000000000000000000000000000000000
310
00000000000000000000000000000000000000000000000000000000000000000000000000000000000000000000000000000000000000000000000000000000000000000000000000000000000000000000000000000000000000000000000000000000000000000000000000000000000000000000000000000000000000
310
00000000000000000000000000000000000000000000000000000000000000000000000000000000000000000000000000000000000000000000000000000000000000000000000000000000000000000000000000000000000000000000000000000000000000000000000000000000000000000000000000000000000000
310
00000000000000000000000000000000000000000000000000000000000000000000000000000000000000000000000000000000000000000000000000000000000000000000000000000000000000000000000000000000000000000000000000000000000000000000000000000000000000000000000000000000000000
310
000000000000000000000000000000000000000000000000000000000000000000000000000000000000000000000000000000000000000000000000000000000000000000000000000000000000000000000000000000000000000000000000000000000000000000000000
  0
ENDSEC
  0
EOF
